rock
 
|tablatures   |lyrics   |discussion forums   |more tabs @ XGuitar.com

Eric Clapton Cream tabs

Politician Live guitar tab

POLITICIAN  by Jack Bruce and Pete Brown
(LIVE VERSION)
transcribed by Maxxdaddy

-------------------------|-------------------|-----------10--------------------
-------------------------|-------------------|--------10----13p10----10--------
-------------------------|--5---5---5--7-5---|--12(14)------------12----12-10\-
-----3-4-----------------|--5h7---7--------7-|---------------------------------
-4-5-----4h5-4h5-----4-5-|-------------------|---------------------------------
-----------------4-5-----|-------------------|---------------------------------

-------------------------|---------------------|----------10--------------------
-------------------------|------------------6\-|-------------13p10--------------
-----3-4-----------------|-----5---5--7-5-7----|-----10-12----------12-10-------
-4-5-----4h5-4h5-----4-5-|--/7---7-------------|-12----------------------12-10\-
-----------------4-5-----|---------------------|-------------------------------- 
-------------------------|---------------------|--------------------------------

 A     A6    A     A6    G     G6    G     G6 
-5--5--5--5--5--5--5--5--3--3--3--3--3--3--3--3--
-5--5--7--7--5--5--7--7--3--3--5--5--3--3--5--5--
-6--6--6--6--6--6--6--6--4--4--4--4--4--4--4--4--
-5--5--5--5--5--5--5--5--3--3--3--3--3--3--3--3--
-7--7--7--7--7--7--7--7--6--6--6--6--6--6--6--6--
-5--5--5--5--5--5--5--5--3--3--3--3--3--3--3--3--

Solo:
---------------------------------------------------------------------------------------
--------10-13(15)-13-13(15)-13-10---------------------10-10-10-10-10-10-10-10----------
-12(14)---------------------------12-10----12-10------10-10-10-10-10-10-10-10----------
----------------------------------------12-------12------------------------------------
-------------------------------------------------------------------------------10-8----
------------------------------------------------------------------------------------10-
                                  4x
----------------------------------------------------------------------
----------------------------------------------------------------------
----------------------------------------------------------------------
-------------10----10-12-10------12-10--------------------------------
-8(9)----/12----12----------12\--------12--12-10-8h9----10~--8----10~-
------10---------------------------------------------10--------10-----

------------------------------------------------------------10------------------------
---------------------------------------------------------10----13p10------------------
--------------------------------------------------12(14)-------------12-10----10(11)~-
----------------------14(15)-14(15)--10-12-10-12~--------------------------12---------
--8----8-10-8(9)----------------------------------------------------------------------
----10-----------10\------------------------------------------------------------------

-/14-14-14-14-14-14-14-14----------------------------------------17(19)-17-15-13----13-15-
-/13-13-13-13-13-13-13-13--15(17)15-13-15(17)15-13--15-13----13~-----------------15-------
-/14-14-14-14-14-14-14-14---------------------------------14------------------------------
------------------------------------------------------------------------------------------
------------------------------------------------------------------------------------------
------------------------------------------------------------------------------------------

---------------14----14--------------------10-----------------------------------
-15-13-15~-/15----15--------------------10----13p10---------------10~-----------
------------------------12-10----12(14)-------------12(14)-12-10------12-10-12~-
------------------------------12------------------------------------------------
--------------------------------------------------------------------------------
--------------------------------------------------------------------------------
  3x
-------------------------------------------------------------------
------10-10--------------------------------15-13-15-13-------------
-9(11)------9-7-------7-9(11)-9(11)-7---7--------------14-12-10----
----------------9-7-9-----------------9-------------------------12-
-------------------------------------------------------------------
-------------------------------------------------------------------

------------------------------------------------------------------------------------------
------------------------------------------------------------------------------------------
----------------------------------------------------------------------7-5-7-5-------------
-/12-12-12-12-12-10-----------------------------7-9(10)9-7---7----------------7-5-3-------
--------------------12-10-8(9)-8(9)------7-7-/9------------9---9--5-5---------------5-3-5-
------------------------------------10---5-5----------------------3-3---------------------

Outro:
---------------------
-------------------7-
-------------------7-
-3h4-3h4-----------7-
----------4h5-4h5--5-
---------------------

D
Hey now baby, get into my big black car.
G
Hey now baby, get into my big black car.
A  A6           A    A6  G   G6  G    G6  D
I want to just show you what my politics are.

I'm a political man and I practice what I preach.
I'm a political man and I practice what I preach.
So don't deny me baby, not while you're in my reach.

I support the left, though I'm leaning, leaning to the right.
I support the left, though I'm leaning to the right.
But I'm just not there when it's coming to a fight.

Hey now baby, get into my big black car.
Hey now baby, get into my big black car.
I want to just show you what my politics are.
  development and support by
dmitry ivanov