rock
 
|tablatures   |lyrics   |discussion forums   |more tabs @ XGuitar.com

Eric Clapton Cream tabs

Politician bass tab

Cream
Politition

G-----------------------------
D-------3-4-------------------
A---4-5-----4-5-4-5-----4-5---
E-------------------4-5-------
Keep playing until you have to do this

G-------3-4-------------------
D---4-5-----4-5-4-5-----4-5---
A-------------------4-5-------
E-----------------------------
Keep playing until chorus when you do this

G-------------------------------------
D-------------------------------------
A-------------------------------------
E--4-4-4-4-4-4-4-4--2-2-2-2-2-2-2-2---
Then back to the start

Any queries or coments e-mail me
mrhall98@hotmail.com
  development and support by
dmitry ivanov