rock
 
|tablatures   |lyrics   |discussion forums   |more tabs @ XGuitar.com

Eric Clapton Cream tabs

Outside Woman Blues guitar tab

DISRAELI GEARS - CREAM
transcribed by MaxxDaddy

9. OUTSIDE WOMAN BLUES  by Arthur "Blind Willie" Reynolds

Intro:
(main riff)

(2x)  E7#9
--------------------
------8-------------
------7-------------
------6-------------
------7-----7-----5-
-0-0-----7h9--5h7---

---------------------------------
---------------------------------
----12-14(15)14-12----12~--------
-14----------------14-----14~~---
---------------------------------
---------------------------------

(continue intro pattern throughout verse)

E7#9
If you lose your money, great God, don't lose your mind.
E7#9
If you lose your money, great God, don't lose your mind.
           B7#9
And if you lose your woman, please don't fool with mine.

E7#9
I'm gonna buy me a bulldog, watch my lady whilst I sleep.
E7#9
I'm gonna buy me a bulldog, watch my lady whilst I sleep.
           B7#9
'Cause women these days, they're so doggone crooked,
That they might make off 'fore day creep.

E7#9
Well, you can't watch your wife and your outside women, too.
E7#9
You know you can't watch your wife and your outside womens, too.
           B7#9
Cause when you're out with your women, your wife will be at home,
Cooking your food, doing a dirt, buddy what you trying to do?


Solo:
----------12-----------------------------------------------------------
-------12----15-12----------------------------------------15-17--------
-14(16)------------14(16)--14-12-14-12-------12(14)-14/16-------15\14--
---------------------------------------14-14---------------------------
-----------------------------------------------------------------------
-----------------------------------------------------------------------

---------------------------------12----------------------------------
--------12----------------15(17)----15-12----------------------------
-12-14-----14-12-14-12~~-----------------14(16)-14-12-14-12----------
------------------------------------------------------------14-14-14-
---------------------------------------------------------------------
---------------------------------------------------------------------

------------------12-----15(17)--15(17)--15-12-----------------------
----------------12----12----------------------12---------------------
-12----14-12(14)--------------------------------14(16)-14-12-14-12~~-
----14---------------------------------------------------------------
---------------------------------------------------------------------
---------------------------------------------------------------------

----17(19)-17(19)--17-15-17----17(19)-15-17-15-------------------------
-17-------------------------17-----------------17-17(20)-15(16)--------
----------------------------------------------------------------16\14~-
-----------------------------------------------------------------------
-----------------------------------------------------------------------
-----------------------------------------------------------------------

-----------------------------------------
-15p12----12-----------------------------
-------14-----14(16)--14--12--12---------
----------------------------------14~~~~-
-----------------------------------------
-----------------------------------------

E7#9
You can't watch your wife and your outside womens, too.
-----------------------------------------
-----12--14(15)14--12------12(13)--------
-13--12--14(15)14--12--13--12(13)--13~~~-
-14--------------------14----------14~~~-
-----------------------------------------
-----------------------------------------
E7#9
You know you can't watch your wife and your outside women, too.
           B7#9
When you're out with your women, your wife will be at home,
Doing a dirt, cooking your food, buddy what you trying to do?

  development and support by
dmitry ivanov