rock
 
|tablatures   |lyrics   |discussion forums   |more tabs @ XGuitar.com

Eric Clapton Cream tabs

No Alibis guitar tab

From: Kenny Winningham
Artist:	Eric Clapton
Album:	Journeyman
Song:	No Alibis

Key: D major

Intro:
--------------------------------------------------------------------------------
-17BU19-17BU19-17BU19BBD17-15~~~---18BU20-17BU19-15h17p15--15-15-17BU19---17p15-
---------------------------------------------------------16---------------------
--------------------------------------------------------------------------------
--------------------------------------------------------------------------------
--------------------------------------------------------------------------------

---------------17-------------------------------------------
---15-15-17BU19--BD17---18BU20-15h17p15-15------------------
-16---------------------------------------14h16p14-14-14~~~-
------------------------------------------------------------
------------------------------------------------------------
------------------------------------------------------------

First Chorus:
----------------|-17BU19-17---------------------|-------15---------------------
-17BU19BD17BU19-|----------17BU19BD17-15-17BU19-|-17BU19--BD17-15~~~--------15-
----------------|-------------------------------|----------------------14h16---
----------------|-------------------------------|------------------------------
----------------|-------------------------------|------------------------------
----------------|-------------------------------|------------------------------

------------------------|
-15h17-15-15------------|
------------16h14-14~~~-|
------------------------|
------------------------|
------------------------|

Second Chorus:
----------------|----------------------|------------------------------------|
-17BU19BD17BU19-|----------------------|-17BU19BD17BU19-17p15--15-15-17BU19-|
----------------|-14h16-14-------------|---------------------16-------------|
----------------|---------16h14--12~~~-|------------------------------------|
----------------|--------------14------|------------------------------------|
----------------|----------------------|------------------------------------|

Solo:
---------------------------17BU19-17-----------------------------------------
-17BU19-17BU19BD17-15~~~------------17p15-17BU19BD17-15h17-------------------
----------------------------------------------------------16BU18BD16-14~~~---
-----------------------------------------------------------------------------
-----------------------------------------------------------------------------
-----------------------------------------------------------------------------

-19BU21BD19-17-15-17--------------15h17-----------------------------14h15-
--------------------17BU19-15----------17BU19-15-17---------------15------
-----------------------------16--------------------16BU18-14~~~-----------
--------------------------------------------------------------------------
--------------------------------------------------------------------------
--------------------------------------------------------------------------

-15BU17-17BU19-20BU22-20p17-----20BU22-20p17--------14h15-15BU17-15BU17-15BU17-
---------------------------20-19------------20-19-15---------------------------
-------------------------------------------------------------------------------
-------------------------------------------------------------------------------
-------------------------------------------------------------------------------
-------------------------------------------------------------------------------

-15p14---------
------17-15~~~-
---------------
---------------
---------------
---------------

Third Chorus:
----------------------------|------------------------|-17BU19BD17------------|
-17BU19BD17BU19-17p15--15---|-17BU19BD17-15-17-15~~~-|-----------17p15--15---|
---------------------16--16-|------------------------|----------------16--16-|
----------------------------|------------------------|-----------------------|
----------------------------|------------------------|-----------------------|
----------------------------|------------------------|-----------------------|

------17-----17-17h19-----------------------------------------|
-17/19--17/19--------17 15-17BU19BD17BU19BD17p15h17-15-17--15-|
---------------------------------------------------------16---|
--------------------------------------------------------------|
--------------------------------------------------------------|
--------------------------------------------------------------|

Well, that's all I know.
I hope you find this useful!
Kenny Winningham
  development and support by
dmitry ivanov