rock
 
|tablatures   |lyrics   |discussion forums   |more tabs @ XGuitar.com

Eric Clapton Cream tabs

My Father's Eyes bass tab

My father eyes (Clapton)


G||------------------|------------------|-------------------------|
D||------------------|------------------|--------------------2----|
A||------------------|------------------|---4-------4--4----------|
E||------------------|------------------|-------------------------|



---2--------2----1----|----------------------|---4---------4-------|
----------------------|----------------------|---------------------|
----------------------|----------------------|---------------------|
----------------------|---2--------0----2----|---------------------|



---------------------|--------------------|-----------------------|
---------------------|--------------------|-----------------------|
---------------------|---0------------0---|-----------------------|
---0------------0----|--------------------|---2----2----0----2----|



----------------------|---------------------------|---2--------2----1----|
----------------------|----------------------2----|----------------------|
---2-------------2----|---4----4----4--4----------|----------------------|
------------4---------|---------------------------|----------------------|



----------------------|---------------------|---------------------|
----------------------|---------------------|---------------------|
----------------------|--2---------2--------|---------------------|
---2--------0----2----|---------------------|---0------------0----|



--2----------1---------|--------------------|-------------------|
------------------0----|---4----------------|-------------------|
---------------------0-|--------------------|-------------------|
-----------------------|--------------------|-------------------|



---------------------|--------------------|---------------------|
---4-----------------|--------------------|---------------------|
------------0--------|--------------------|---2--------2--------|
---------------------|---0--------2-------|---------------------|



---------------------|-----------------4----|------------------|
---------------------|---4------------------|------------------|
---------------------|--------2-------------|------------------|
--0---------0--------|----------------------|------------------|



----------------------|------------------|----------------------|
---3-------------2----|------------------|---4------------------|
--------2-------------|------------------|-----------------1----|
----------------------|------------------|--------2-------------|



----------------------|--------------------|--------------------|
----------------------|--------------------|---2--------2-------|
---2-----------2------|---2--------2-------|--------------------|
-------------------2--|--------------------|--------------------|



-------------------------|---1--------1--------|-----------------------|
---4---------------------|---------------------|---3-------------------|
--------------------2----|---------------------|------------------2----|
---------2----4----------|---------------------|--------1----4---------|



--------------------|------------------------|--------------------|
---4------------4---|---2--------------------|--2---------2-------|
--------------------|--------0-----2----0----|--------------------|
--------------------|------------------------|--------------------|



--------------------|-----------------------|----------------------|
--------------------|-----------------------|----------------------|
--------------------|---0--------0----0-----|---0------------------|
---------------0----|--------------------0--|-----------------0----|



----------------------|----------------------|--------------------|
----------------------|----------------------|--------------------|
---2---------2--------|----------------------|--0-----------------|
----------------------|---0----0--------0----|---------------4----|



----------------------|---------------------|--------------------|
----------------------|---------------------|--------------------|
----------------------|--2--------------2---|--------------------|
---2-------0-----2----|------------4--------|---------------0----|



---------------------|-----------------------|----------------------|
---------------------|-----------------------|----------------------|
---0------------0----|-----------------------|---2---------2--------|
---------------------|---0----0---------0----|----------------------|



-----------------------|--------------------|-----------------------|
-----------------------|--------------------|-----------------------|
-----------------------|---0----------------|-----------------------|
---0----0---------0----|----------------4---|---2---------0----2----|



----------------------|-------------------------|---2--------2----1----|
----------------------|--------------------2----|----------------------|
---2--------------2---|---4-------4--4----------|----------------------|
------------4---------|-------------------------|----------------------|



----------------------|---4---------4-------|---------------------|
----------------------|---------------------|---------------------|
----------------------|---------------------|---------------------|
---2--------0----2----|---------------------|---0------------0----|



--------------------|-----------------------|----------------------|
--------------------|-----------------------|----------------------|
---0------------0---|-----------------------|---2-------------2----|
--------------------|---2----2----0----2----|------------4---------|



---------------------------|---2--------2----1----|----------------------|
----------------------2----|----------------------|----------------------|
---4----4----4--4----------|----------------------|----------------------|
---------------------------|----------------------|---2--------0----2----|



---------------------|---------------------|--2----------1---------|
---------------------|---------------------|------------------0----|
--2---------2--------|---------------------|---------------------0-|
---------------------|---0------------0----|-----------------------|



--------------------|-------------------|---------------------|
---4----------------|-------------------|---4-----------------|
--------------------|-------------------|------------0--------|
--------------------|-------------------|---------------------|



--------------------|---------------------|---------------------|
--------------------|---------------------|---------------------|
--------------------|---2--------2--------|---------------------|
---0--------2-------|---------------------|--0---------0--------|



-----------------4----|------------------|----------------------|
---4------------------|------------------|---3-------------2----|
--------2-------------|------------------|--------2-------------|
----------------------|------------------|----------------------|



------------------|----------------------|----------------------|
------------------|---4------------------|----------------------|
------------------|-----------------1----|---2-----------2------|
------------------|--------2-------------|-------------------2--|



--------------------|--------------------|-------------------------|
--------------------|---2--------2-------|---4---------------------|
---2--------2-------|--------------------|--------------------2----|
--------------------|--------------------|---------2----4----------|



---1--------1--------|-----------------------|--------------------|
---------------------|---3-------------------|---4------------4---|
---------------------|------------------2----|--------------------|
---------------------|--------1----4---------|--------------------|



------------------------|--------------------|--------------------|
---2--------------------|--2---------2-------|--------------------|
--------0-----2----0----|--------------------|--------------------|
------------------------|--------------------|---------------0----|



-----------------------|----------------------|----------------------|
-----------------------|----------------------|----------------------|
---0--------0----0-----|---0------------------|---2---------2--------|
--------------------0--|-----------------0----|----------------------|



----------------------|--------------------|----------------------|
----------------------|--------------------|----------------------|
----------------------|--0-----------------|----------------------|
---0----0--------0----|---------------4----|---2-------0-----2----|



---------------------|--------------------|---------------------|
---------------------|--------------------|---------------------|
--2--------------2---|--------------------|---0------------0----|
------------4--------|---------------0----|---------------------|



-----------------------|----------------------|-----------------------|
-----------------------|----------------------|-----------------------|
-----------------------|---2---------2--------|-----------------------|
---0----0---------0----|----------------------|---0----0---------0----|



--------------------|-----------------------|----------------------|
--------------------|-----------------------|----------------------|
---0----------------|-----------------------|---2--------------2---|
----------------4---|---2---------0----2----|------------4---------|



-------------------------|---2--------2----1----|----------------------|
--------------------2----|----------------------|----------------------|
---4-------4--4----------|----------------------|----------------------|
-------------------------|----------------------|---2--------0----2----|



---4---------4-------|---------------------|--------------------|
---------------------|---------------------|--------------------|
---------------------|---------------------|---0------------0---|
---------------------|---0------------0----|--------------------|



-----------------------|----------------------|---------------------------|
-----------------------|----------------------|----------------------2----|
-----------------------|---2-------------2----|---4----4----4--4----------|
---2----2----0----2----|------------4---------|---------------------------|



---2--------2----1----|----------------------|---------------------|
----------------------|----------------------|---------------------|
----------------------|----------------------|--2---------2--------|
----------------------|---2--------0----2----|---------------------|



---------------------|--2----------1---------|---------------------|
---------------------|------------------0----|---4-----------------|
---------------------|---------------------0-|---------------------|
---0------------0----|-----------------------|----------0-----2----|



---------------------|---------------------|------------------|
---------------------|---------------------|------------------|
---------------------|---------------------|------------------|
---4--------4--------|---0------------0----|------------------|



---------------------|------------------|---------------------|
---------------------|------------------|---------------------|
---------------------|------------------|---------------------|
---0------------0----|------------------|---0------------0----|



------------------|---------------------|------------------|
------------------|---------------------|------------------|
------------------|---------------------|------------------|
------------------|---0------------0----|------------------|



---------------------|------------------|---------------------|
---------------------|------------------|---------------------|
---------------------|------------------|---------------------|
---0------------0----|------------------|---0------------0----|



------------------|---------------------|-------------------|
------------------|---------------------|-------------------|
------------------|---------------------|-------------------|
------------------|---0------------0----|----------------0--|



----------------------|---1--------4--------|-------------------------|
----------------------|---------------------|--------------------2----|
----------------------|---------------------|---4-------4--4----------|
--0--------------0----|---------------------|-------------------------|



---2--------2----1----|----------------------|---4---------4-------|
----------------------|----------------------|---------------------|
----------------------|----------------------|---------------------|
----------------------|---2--------0----2----|---------------------|



---------------------|--------------------|-----------------------|
---------------------|--------------------|-----------------------|
---------------------|---0------------0---|-----------------------|
---0------------0----|--------------------|---2----2----0----2----|



----------------------|---------------------------|---2--------2----1----|
----------------------|----------------------2----|----------------------|
---2-------------2----|---4----4----4--4----------|----------------------|
------------4---------|---------------------------|----------------------|



----------------------|---------------------|---------------------|
----------------------|---------------------|---------------------|
----------------------|--2---------2--------|---------------------|
---2--------0----2----|---------------------|---0------------0----|



--2----------1---------|--------------------|--------------------|
------------------0----|--------------------|--------------------|
---------------------0-|--------------------|---0----------------|
-----------------------|---2----------------|------------0-------|



--------------------|---------------------|-----------------4----|
--------------------|---------------------|---4------------------|
---2--------2-------|---------------------|--------2-------------|
--------------------|--0---------0--------|----------------------|



------------------|----------------------|------------------|
------------------|---3-------------2----|------------------|
------------------|--------2-------------|------------------|
------------------|----------------------|------------------|



----------------------|----------------------|--------------------|
---4------------------|----------------------|--------------------|
-----------------1----|---2-----------2------|---2--------2-------|
--------2-------------|-------------------2--|--------------------|



--------------------|-------------------------|---1--------1--------|
---2--------2-------|---4---------------------|---------------------|
--------------------|--------------------2----|---------------------|
--------------------|---------2----4----------|---------------------|



-----------------------|--------------------|------------------------|
---3-------------------|---4------------4---|---2--------------------|
------------------2----|--------------------|--------0-----2----0----|
--------1----4---------|--------------------|------------------------|



--------------------|--------------------|-----------------------|
--2---------2-------|--------------------|-----------------------|
--------------------|--------------------|---0--------0----0-----|
--------------------|---------------0----|--------------------0--|



----------------------|----------------------|----------------------|
----------------------|----------------------|----------------------|
---0------------------|---2---------2--------|----------------------|
-----------------0----|----------------------|---0----0--------0----|



--------------------|----------------------|---------------------|
--------------------|----------------------|---------------------|
--0-----------------|----------------------|--2--------------2---|
---------------4----|---2-------0-----2----|------------4--------|



--------------------|---------------------|-----------------------|
--------------------|---------------------|-----------------------|
--------------------|---0------------0----|-----------------------|
---------------0----|---------------------|---0----0---------0----|



----------------------|-----------------------|--------------------|
----------------------|-----------------------|--------------------|
---2---------2--------|-----------------------|---0----------------|
----------------------|---0----0---------0----|----------------4---|



-----------------------|----------------------|-------------------------|
-----------------------|----------------------|--------------------2----|
-----------------------|---2--------------2---|---4-------4--4----------|
---2---------0----2----|------------4---------|-------------------------|



---2--------2----1----|----------------------|---4---------4-------|
----------------------|----------------------|---------------------|
----------------------|----------------------|---------------------|
----------------------|---2--------0----2----|---------------------|



---------------------|--------------------|-----------------------|
---------------------|--------------------|-----------------------|
---------------------|---0------------0---|-----------------------|
---0------------0----|--------------------|---2----2----0----2----|



----------------------|-------------------------|---2--------2----1----|
----------------------|--------------------2----|----------------------|
---2-------------2----|---4-------4--4----------|----------------------|
------------4---------|---4---------------------|----------------------|



----------------------|---4---------4-------|---------------------|
----------------------|---------------------|---------------------|
----------------------|---------------------|---------------------|
---2--------0----2----|---------------------|---0------------0----|



--------------------|-----------------------|----------------------|
--------------------|-----------------------|----------------------|
---0------------0---|-----------------------|---2-------------2----|
--------------------|---2----2----0----2----|------------4---------|



---------------------------|---2--------2----1----|----------------------|
----------------------2----|----------------------|----------------------|
---4----4----4--4----------|----------------------|----------------------|
---------------------------|----------------------|---2--------0----2----|



---------------------|---------------------|--2----------1---------|
---------------------|---------------------|------------------0----|
--2---------2--------|---------------------|---------------------0-|
---------------------|---0------------0----|-----------------------|



--------------------|-------------------|---------------------|
---4----------------|-------------------|---4-----------------|
--------------------|-------------------|------------0--------|
--------------------|-------------------|---------------------|



--------------------|------------------|-------------------||
--------------------|------------------|-------------------||
--------------------|------------------|-------------------||
---0----------------|------------------|-------------------||
  development and support by
dmitry ivanov