rock
 
|tablatures   |lyrics   |discussion forums   |more tabs @ XGuitar.com

Eric Clapton Cream tabs

Layla bass tab

Eric Clapton - Layla
Tabbed by Mike Addis

intro / main riff
G:|-----------------|-------------------|
D:|-------0-3-0---0-|-------------------|
A:|---0-3-------3---|-5-3-1---0-3--0-3-5|
E:|-----------------|-------3-----------|


verse part 1
G|---------------------------------------|
D|-----6-4-----------------------9-7-----|
A|-4-4---------6-6-4-4-3-5-5-7-7----7----|
E|---------4-4---------------------------|

verse part 2
G|------------------------------------|
D|----------1-1-------------1-1-------|
A|------1-1-----0-0-----1-1-----0-0---|
E|--1-1-------------1-1---------------|
  development and support by
dmitry ivanov