rock
 
|tablatures   |lyrics   |discussion forums   |more tabs @ XGuitar.com

Eric Clapton Cream tabs

Knockin On Heavens Door guitar tab

Eric Clapton - Knocking on Heavens Door
Tabbed By: Stubbsie
Email: matthew.stubbsies@ntlworld.com

Tuning: Standard (E A D G B E)



INTRO

E|-5-/-7---5---3---|-----------------|-0---0---0-------||
B|-----------------|-----------------|-1---1---1-------||
G|-5-/-7---5---4---|-2-p-0-------0---|-0---0---0-------||
D|-----------------|---------2-------|-2---2---2-------||
A|-----------------|-----------------|-0---0---0-------||
E|-----------------|-----------------|-----------------||


CHORUS
   G5                D                 Am                Am7
   1 + 2 + 3 + 4 +   1 + 2 + 3 + 4 +   1 + 2 + 3 + 4 +   1 + 2 + 3 + 4 +
   D       D U D      D      D U D     D       D U D     D       D U D
E|-3-------3-3-3---|-2-------2-2-2---|-0-------0-0-0---|-0-------0-0-0---||
B|-3-------3-3-3---|-3-------3-3-3---|-1-------1-1-1---|-1-------1-1-1---||
G|-0-------0-0-0---|-2-------2-2-2---|-2-------2-2-2---|-0-------0-0-0---||
D|-0-------0-0-0---|-0-------0-0-0---|-2-------2-2-2---|-2-------2-2-2---||
A|-2-------2-2-2---|-----------------|-0-------0-0-0---|-0-------0-0-0---||
E|-3-------3-3-3---|-----------------|-----------------|-----------------||

   G5                D                 Am                C
   1 + 2 + 3 + 4 +   1 + 2 + 3 + 4 +   1 + 2 + 3 + 4 +   1 + 2 + 3 + 4 +
   D       D U D      D      D U D     D       D U D     D       D U D
E|-3-------3-3-3---|-2-------2-2-2---|-0-------0-0-0---|-0-------0-0-0---||
B|-3-------3-3-3---|-3-------3-3-3---|-1-------1-1-1---|-1-------1-1-1---||
G|-0-------0-0-0---|-2-------2-2-2---|-2-------2-2-2---|-0-------0-0-0---||
D|-0-------0-0-0---|-0-------0-0-0---|-2-------2-2-2---|-2-------2-2-2---||
A|-2-------2-2-2---|-----------------|-0-------0-0-0---|-3-------3-3-3---||
E|-3-------3-3-3---|-----------------|-----------------|-----------------||
  development and support by
dmitry ivanov