rock
 
|tablatures   |lyrics   |discussion forums   |more tabs @ XGuitar.com

Eric Clapton Cream tabs

Key To The Highway bass tab

Eric Clapton
Key to the Highway
Standard tuning (EADG) but me and my band play it in Eb


|------------------------------------------------------------------|
|------------------------------------------------------------------|
|-0---------0-----0---------0-----0---------0-----0---------0------|
|------------------------------------------------------------------|


|------------------------------------------------------------------|
|------------------------------------------------------------------|
|------------------------------------------------------------------|
|-0---------0-----0---------0-----0---------0-----0---------0------|


|------------------------------------------------------------------|
|-0---------0-----0---------0-----0---------0-----0---------0------|
|------------------------------------------------------------------|
|------------------------------------------------------------------|


|------------------------------------------------------------------|
|-0---------0-----0---------0-----0---------0-----0---------0------|
|------------------------------------------------------------------|
|------------------------------------------------------------------|


|------------------------------------------------------------------|
|------------------------------------------------------------------|
|-0---------0-----0---------0-----0---------0-----0---------0------|
|------------------------------------------------------------------|


|------------------------------------------------------------------|
|------------------------------------------------------------------|
|------------------------------------------------------------------|
|-0---------0-----0---------0-----0---------0-----0---------0------|


|------------------------------------------------------------------|
|------------------------------------------------------------------|
|-0---------0------------------------------------------------------|
|-----------------3---------3-----2---------2-----1---------1------|


|------------------------------------------------------------------|
|------------------------------------------------------------------|
|------------------------------------------------------------------|
|-0---------0-----0---------0-----0---------0-----0---------2------|


|------------------------------------------------------------------|
|------------------------------------------------------------------|
|-0---------0-----0---------0-----0---------0-----0---------0------|
|------------------------------------------------------------------|


|------------------------------------------------------------------|
|------------------------------------------------------------------|
|-----------------------------------------------------------2------|
|-0---------0-----0---------0-----0---------0-----4----------------|


|------------------------------------------------------------------|
|-0---------0-----0---------0-----0---------0-----0---------0------|
|------------------------------------------------------------------|
|------------------------------------------------------------------|


|------------------------------------------------------------------|
|-0---------0------------------------------------------------------|
|------------------------------------------------------------------|
|-----------------2---------2-----3---------3-----4---------4------|


|------------------------------------------------------------------|
|------------------------------------------------------------------|
|-0---------0-----0---------0-----0---------0-----0---------0------|
|------------------------------------------------------------------|


|------------------------------------------------------------------|
|------------------------------------------------------------------|
|------------------------------------------------------------------|
|-0---------0-----0---------0-----0---------0-----0---------0------|


|------------------------------------------------------------------|
|------------------------------------------------------------------|
|-0----------------------------------------------------------------|
|-----------------3---------------2---------------1----------------|


|------------------------------------------------------------------|
|------------------------------------------------------------------|
|------------------------------------------------------------------|
|-0---------------0---------0---------------0-----0---------2------|


|------------------------------------------------------------------|
|-----------------------------------------------------------0------|
|-0---------0-----0---------0-----0---------0-----4----------------|
|------------------------------------------------------------------|


|------------------------------------------------------------------|
|-2---------2-----2---------2-----2---------2-----2---------2------|
|------------------------------------------------------------------|
|------------------------------------------------------------------|


|------------------------------------------------------------------|
|-0---------0-----0---------0-----0---------0-----0---------0------|
|------------------------------------------------------------------|
|------------------------------------------------------------------|


|------------------------------------------------------------------|
|-0---------0-----0---------0-----0---------0----------------------|
|------------------------------------------------------------------|
|-------------------------------------------------2---3-----4------|


|------------------------------------------------------------------|
|------------------------------------------------------------------|
|-0---------0-----0---------0-----0---------0-----0---------0------|
|------------------------------------------------------------------|


|------------------------------------------------------------------|
|------------------------------------------------------------------|
|------------------------------------------------------------------|
|-0---------0-----0---------0-----0---------0-----0---------0------|


|------------------------------------------------------------------|
|------------------------------------------------------------------|
|-0---------0------------------------------------------------------|
|-----------------3---------3-----2---------2-----1---------1------|


|------------------------------------------------------------------|
|------------------------------------------------------------------|
|------------------------------------------------------------------|
|-0---------0-----0---------0-----0---------0-----0---------3------|


|------------------------------------------------------------------|
|---------------------------------2---------2-----4---2------------|
|-0---------0-----4-------4---------------------------------4------|
|------------------------------------------------------------------|


|------------------------------------------------------------------|
|------------------------------------------------------------------|
|---------------------------------2---------2-----4---------2------|
|-0-------0-------4---------4--------------------------------------|

|
|------------------------------------------------------------------|
|-0---------0-----0---------0-----0---------0-----0---------0------|
|------------------------------------------------------------------|
|------------------------------------------------------------------|


|------------------------------------------------------------------|
|-0---------0-----0---------0-----0---------0----------------------|
|------------------------------------------------------------------|
|-------------------------------------------------2---------3------|


|------------------------------------------------------------------|
|------------------------------------------------------------------|
|-0---------0-----0---------0-----0---------0-----0---------0------|
|------------------------------------------------------------------|


|------------------------------------------------------------------|
|------------------------------------------------------------------|
|------------------------------------------------------------------|
|-0---------0-----0---------0-----0---------0-----0---------0------|


|-----------2---------------0--------------------------------------|
|-------------------------------------------4---------------3------|
|-0----------------------------------------------------------------|
|-----------------3---------------2---------------1----------------|


|------------------------------------------------------------------|
|-----------2---------------2--------------------------------------|
|------------------------------------------------------------------|
|-0---------------0-------------------------0-----0---------2------|


|------------------------------------------------------------------|
|-----------------------------------------------------------2------|
|-0---------0-----0---------0-----0---------0-----4----------------|
|------------------------------------------------------------------|


|------------------------------------------------------------------|
|------------------------------------------------------------------|
|-----------------------------------------------------------2------|
|-0---------0-----0---------0-----0---------0-----4----------------|


|-----------------------------------------------------------2------|
|-0---------0-----0---------0-----0---------0-----2----------------|
|------------------------------------------------------------------|
|------------------------------------------------------------------|


|------------------------------------------------------------------|
|-0---------0------------------------------------------------------|
|------------------------------------------------------------------|
|-----------------2---------2-----3---------3-----4---------4------|


|------------------------------------------------------------------|
|---------------------------------2---------2-----4-------2--------|
|-0---------0-----4---------4--------------------------------------|
|------------------------------------------------------------------|


|------------------------------------------------------------------|
|------------------------------------------------------------------|
|------------------------------------------------------------------|
|-0---------0-----0---------0-----0---------0-----0---------2------|


|------------------------------------------------------------------|
|------------------------------------------------------------------|
|-0---------0------------------------------------------------------|
|-----------------3---------3-----2---------2-----1---------1------|


|------------------------------------------------------------------|
|------------------------------------------------------------------|
|------------------------------------------------------------------|
|-0---------0-----0---------0-----0---------0-----0---------2------|


|------------------------------------------------------------------|
|-----------------------------------------------------------0------|
|-0---------0-----0---------0-----0---------0-----4----------------|
|------------------------------------------------------------------|


|------------------------------------------------------------------|
|-2---------2-----2---------2-----2---------2-----2---------1------|
|------------------------------------------------------------------|
|------------------------------------------------------------------|


|------------------------------------------------------------------|
|-0---------0-----0---------0-----0---------0-----0---------0------|
|------------------------------------------------------------------|
|------------------------------------------------------------------|


|------------------------------------------------------------------|
|-0---------0------------------------------------------------------|
|---------------------------------0---------0-----2---------2------|
|-----------------2---------2--------------------------------------|


|------------------------------------------------------------------|
|------------------------------------------------------------------|
|-0---------0-----0---------0-----0---------0-----0---------0------|
|------------------------------------------------------------------|


|------------------------------------------------------------------|
|-----------------------------------------------------------2------|
|---------------------------------2---------2-----4----------------|
|-0---------0-----4---------4--------------------------------------|


|------------------------------------------------------------------|
|------------------------------------------------------------------|
|-0---------0------------------------------------------------------|
|-----------------3-------3-------2---------2-----1---------1------|


|------------------------------------------------------------------|
|------------------------------------------------------------------|
|------------------------------------------------------------------|
|-0---------0-----0---------0-----0---------0-----0---------0------|


|------------------------------------------------------------------|
|------------------------------------------------------------------|
|-0---------0-----0---------0-----0---------0-----0---------0------|
|------------------------------------------------------------------|


|------------------------------------------------------------------|
|------------------------------------------------------------------|
|------------------------------------------------------------------|
|-0---------0-----0---------0-----0---------0-----0---------0------|


|------------------------------------------------------------------|
|-0---------0-----0---------0-----0---------0-----0---------0------|
|------------------------------------------------------------------|
|------------------------------------------------------------------|


|------------------------------------------------------------------|
|-0---------0-----0---------0-----0---------0-----0---------0------|
|------------------------------------------------------------------|
|------------------------------------------------------------------|


|------------------------------------------------------------------|
|------------------------------------------------------------------|
|-0---------0-----0---------0-----0---------0-----0---------0------|
|------------------------------------------------------------------|


|------------------------------------------------------------------|
|------------------------------------------------------------------|
|------------------------------------------------------------------|
|-0---------0-----0---------0-----0---------0-----0---------0------|


|------------------------------------------------------------------|
|------------------------------------------------------------------|
|-0---------0------------------------------------------------------|
|-----------------3---------3-----2---------2-----1---------1------|


|------------------------------------------------------------------|
|------------------------------------------------------------------|
|------------------------------------------------------------------|
|-0---------0-----0---------0-----0---------0-----0---------0------|


|-----------------------------------------------------------------||
|-----------------------------------------------------------------*|
|-0---------0-----0---------0-----0---------0-----0---------0-----*|
|-----------------------------------------------------------------||


|------------------------------------------------------------------|
|------------------------------------------------------------------|
|---------------------------0--------------------------------------|
|-0---------------4------------------------------------------------|


|------------------------------------------------------------------|
|------------------------------------------------------------------|
|------------------------------------------------------------------|
|------------------------------------------------------------------|


|------------------------------------------------------------------|
|------------------------------------------------------------------|
|-0----------------------------------------------------------------|
|------------------------------------------------------------------|
  development and support by
dmitry ivanov