rock
 
|tablatures   |lyrics   |discussion forums   |more tabs @ XGuitar.com

Eric Clapton Cream tabs

I Feel Free guitar tab

I FEEL FREE  by Jack Bruce and Pete Brown
transcribed by Maxxdaddy

Intro:

F7#9~

(if you're interested, this is the melody that Jack Bruce
hums during the intro):

---------------------------------------------------------
---------------------------------------------------------
---------10-------------------------------10-------------
-12(14)~----(14)-12-10----10~-----12(14)~----(14)-12-10~-
-----------------------12--------------------------------
---------------------------------------------------------

-------------------------------------------------
-------------------------------------------------
---------10--------------------------------------
-12(14)~----(14)-12-10----10~----------------10~-
-----------------------12---------13~--12-13-----
-------------------------------------------------

C D# F   D#      F              D#    
     Feel  when I dance with you,
F D#               F   D#
We  move like the sea.
F   D#              F            D#    
You,   you're all I want to know.
D#      F    D#      F    D#     F
I feel free, I feel free, I feel free.

----------------------------
-3-3-1----------------------
-------3-1------------------
-----------4-1--------------

I can walk down the street, there's no one there
Though the pavements are one huge crowd.
I can drive down the road; my eyes don't see,
Though my mind wants to cry out loud.

(Solo)
--------------------------10(11)10------
-10(12)~---10(11)10p8-10------------10~-
----------------------------------------
----------------------------------------
----------------------------------------
----------------------------------------

---------------------------------------------------16(18)16---------
-13(15)~-15(16)15p13----------14(16)~-(16)14p12-14----------14(16)~-
---------------------15-14~----------------------------------------
-----------------------------------------------------------------
-----------------------------------------------------------------
-----------------------------------------------------------------

----------------------------------------------------------------------------
-10(12)~-------------------------------10(12)~--(12)10p8h10-----------------
-----------12(14)12p10h12-10h12-10~-------------------------10h12-10h12-10~-
----------------------------------------------------------------------------
----------------------------------------------------------------------------
----------------------------------------------------------------------------

--------13-13~----13-18(20)-(20)18p16-------------16-18-16(17)-
-16(18)-------------------------------18-16-18~----------------
---------------------------------------------------------------
---------------------------------------------------------------
---------------------------------------------------------------
---------------------------------------------------------------

      C#           
I can walk down the street, there's no one there
            B
Though the pavements are one huge crowd.
       A#
I can drive down the road; my eyes don't see,
           F#
Though my mind wants to cry out loud,
           D#
Though my mind wants to cry out loud.

Dance floor is like the sea,
Ceiling is the sky.
You're the sun and as you shine on me,
I feel free, I feel free, I feel free.

  development and support by
dmitry ivanov