rock
 
|tablatures   |lyrics   |discussion forums   |more tabs @ XGuitar.com

Eric Clapton Cream tabs

I Feel Free bass tab

Cream - "I Feel Free"


  Bridge

G|------|
D|------|
A|---5--|
E|7-----|


  Verse

G|----------------|----------------|-----------------|-----------------|
D|----------------|----------------|-----------------|-----------------|
A|7x77--7-7--775--|7x77--7-7--775--|7x77--7-7--775-5-|7x77--7-7--775-5-|
E|--------------7-|--------------7-|--------------7--|--------------7--|

                                                  x2

G|----------------|----------------|--7775----7775----9997----9997--|
D|----------------|----------------|------7-------7-------9-------9-|
A|7x77--7-7--775--|7x77--7-7--775--|5-------5-------7-------7-------|
E|--------------7-|--------------7-|--------------------------------|


G|--7775----7775-----------------------|
D|------7-------7----------------------|
A|5-------5-------7-7775--7-7775-------|
E|----------------------7-------7-0----|


  First Chorus

G|------------------------------------------|
D|------------------------------------------|
A|75--------7-75--------75--------7-7-75----|
E|--7530--------7530------7530----------7530|


  Second Chorus

G|----------------------------------------------------------|
D|10----108----8----8-86---7----75--------------------------|
A|---------1086---------868-------75-8----8-86---5----53----|
E|----------------------------------8---------864-------5310|
  development and support by
dmitry ivanov