rock
 
|tablatures   |lyrics   |discussion forums   |more tabs @ XGuitar.com

Eric Clapton Cream tabs

Crossroads bass tab

Crossroads By: Cream
Tabbed by: Jimmy Myers
email:  jimmy_bass_tabs@hotmail.com

   riff a                    riff b
|---------------------||-------------------||
|--7-7-5-7-5-7-5------||--7-5-7-5-7-5------||
|----------------3-0--||--------------3-0--||
|---------------------||-------------------||
   chorus
|--------9---9------------------|
|-------------------------------|
|--5-6-7---7---7--7-8-9--9-7-5--|
|-------------------------------|
  bridge
|-------------|
|-------------|
|--5-3--------|
|------5-3-0--|

repeat riff 2x's then drop down to the G string and play once.
the chorus is played then riff a is played once followed by the 
bridge
  development and support by
dmitry ivanov