rock
 
|tablatures   |lyrics   |discussion forums   |more tabs @ XGuitar.com

Eric Clapton Cream tabs

After Midnight bass tab

After Midnight - Eric Clapton

  intro  (x4)        "After midnight.."                         "We're gonna stimulate.."
G|-----|--------------|-------------------------------------------|-------------------------------
D|-----|--------------|-------------------------------------------|-----------3---023---023---023-
A|8----|3-3--58-65-0--|3--023--02/6-6-/8-8\-3--023--023--023--023-|3---023--03--3-----3-----3-----
E|-----|----5-----5---|--3----3---------------3----3----3----3----|--3-----3----------------------


--------------------------------|
--345---345-5---345-5---345432--|
3-----5------5-------5--------3-|
--------------------------------|
  development and support by
dmitry ivanov