rock
 
|tablatures   |lyrics   |discussion forums   |more tabs @ XGuitar.com

Eagles tabs

Victim Of Love guitar tab

Victim of Love
                              by The Eagles

INTRO
|--------6------------------------------------|
|----3-6---6----------------------------------|
|------------5b7r5-3--5b7r5-3--5b7-5-3-5------|
|----------------------------------------5----|
|-5-------------------------------------------|
|-3-------------------------------------------|

|-----------6---------------------------------|
|-------3-6---6-------------------------------|
|---------------5b7r5-3-5-5b7------3-5b7r5-3--|
|-5-5--------------------------3-2-----------5|
|-3-3-5------------------------1-0------------|
|-----3---------------------------------------|

|--------6------------------------------------|
|----3-6---6----------------------------------|
|------------5b7r5-3--5b7r5-3-5-3b5-----------|
|---------------------------------------------|
|-5-------------------------------------------|
|-3-------------------------------------------|

|-----------6---------------------------------|
|-------3-6---6-------------------------------|
|---------------5b7r5-3-5b7r5-3---------------|
|-5-5---------------------------5-------------|let this note ring
|-3-3-5---------------------------------------|
|-----3---------------------------------------|

then the verses go something like this

|---------------------------|-------------------|
|---------------------------|-------------------|
|---------------------------|-------------------|
|----------------------5-5--|---------------3-2-|
|-5-x-5--5-x-5--5-x-5--3-3--|-5-x-5--5-x-5--1-0-|
|-3-x-3--3-x-3--3-x-3-------|-3-x-3--3-x-3------|

|--------------------------|-----------------|
|--------------------------|-----------------|
|--------------------------|-----------------|
|----------------------5-5-|--------5-5------|let the two C's and the
|-5-x-5--5-x-5--5-x-5--3-3-|-5-x-5--3-3--5---|G ring
|-3-x-3--3-x-3--3-x-3------|-------------3---|

|--------------------------|---------------------------------|
|--------------------------|---------------------------------|
|--------------------------|--------------------3-------2----|
|----------------------5-5-|------------------3---3---2---2--|
|-5-x-5--5-x-5--5-x-5--3-3-|-5-x-5--5-x-5---5-------0--------|
|-3-x-3--3-x-3--3-x-3------|-3-x-3--3-x-3--------------------|

|----------------------------------------|----------------|
|----------------------------------------|----------------|
|----------------------------------------|----------------|
|----------------------5-5---------5-5---|----------------|
|-5-x-5--5-x-5--5-x-5--3-3--5-x-5--3-3-5-|-3-3--5-5--7-7--|
|-3-x-3--3-x-3--3-x-3-------3-x-3------3-|-1-1--3-3--5-5--|

then the chorus goes:

|--------------------|----------------|-----------------|
|--------------------|----------------|-----------------|
|--------------------|----------------|-----------------|
|-3--3---5-7-9-10----|----------------|-3-3----9--10----|
|-1--0-5-3-5-7--8--5-|-3-3--5-5--7-7--|-1-0-5--7---8-5--|
|------3-----------3-|-1-1--3-3--5-5--|-----3--------3--|

then repeat the verse stuff and the chorus/solo/chorus x2

I think that's about it. Sorry I didn't have time to figure out the 
solo, but it's not that hard.If you don't want it, just play the verse
stuff over it.

Later,
John Yacovazzi
A.K.A. The Guitar Wiz
  development and support by
dmitry ivanov