rock
 
|tablatures   |lyrics   |discussion forums   |more tabs @ XGuitar.com

Eagles tabs

Too Many Hands guitar chords

TOO MANY HANDS
R. Meisner & D. Felder

Eagles
One of These Nights
1975

This is a pretty easy song (from the acoustic standpoint), so I was
wondering if I should put it up, so I said yeah, it'll be easy.  If
you can get Meisner's slightly screechy voice down, you're set!  Have
fun with it, and remember the D5 tuning.

ACOUSTIC GUITAR in D5 tuning: (low to high) DADAAD

CHORDS in D5 tuning (these are really tough, guys)

	D5   000000
	G5   555555
	F5   333333
	E5   222222

--------------------------------------------------------------------------------INTRO
Two spaces equals one 16th note
Play 4 times
Rhythm Figure 1 (=RF1)

    +       +       +       +          +       +       +       +
e:--0---0-0-----0-0---------0-------|--0---0-0---------------------0-0-|
B:--0---0-0-----0-0---------0-------|--0---0-0---------------------0-0-|
G:--0---0-0-----0-0---------0-------|--0---0-0---------------------0-0-|
D:-/5---3-3-----0-0-----3p0-0---3p0-|-/5---3-3-----0-3p0-----------0-0-|
A:----------------------------------|------------3-------3-------------|
E:----------------------------------|----------------------3---0-------|

--------------------------------------------------------------------------------      D5
She's one of a kind
D5
Sometimes hard to find
       RF1
Like a rainbow
	    D5
Well, she's lost all her glory
    D5
And could tell you some stories
        RF1
That we all should know


	    G5	     F5
And there's too many hands
      D5
Being laid on her
G5	 F5		 D5
Too many eyes will never see
	  G5
That it's dragging her down
	F5	     E5
But you won't hear a sound as
	   RF1
She turns 'round

--------------------------------------------------------------------------------continue simile

Her beauty all aflight
It always seems to turn the tide
At midnight

And for her there is no rest 
We are doing what is best 
For our future 

One of these days she may not
Be so good to you
One of these days she might 
Chain you to the ground 
But her fire is still burning
	F5	       E5	      D5
And her heart is still yearning to be found

--------------------------------------------------------------------------------
Rhythm Figure 1 6 times over solo

--------------------------------------------------------------------------------
Too many hands
Being laid on her
Too many eyes will never see
That it's dragging her down
But you won't hear a sound as
She turns round

--------------------------------------------------------------------------------Rhythm Figure 2 until end

   + .   . +       +       +          + .   . +       +       +
e:-0-0---0---0-0-0---0-0---------0--|-0-0---0---0-0-0---0-0---2h3p2-0--|
B:-0-0---0---0-0-0---0-0---------0--|-0-0---0---0-0-0---0-0---------0--|
G:-3-5---5---0-3-5---5-5---2h3p2-0--|-3-5---5---0-3-5---5-5---------0--|
D:---------------0---0-0---------0--|---------------0---0-0---------0--|
A:----------------------------------|----------------------------------|
E:----------------------------------|----------------------------------|


   + .   . +       +       +          + .   . +       +       +
e:-0-0---0---0-0-0---0-0---------0--|-0-0---0---0-0-0-0---------------|
B:-0-0---0---0-0-0---0-0---------0--|-0-0---0---0-0-0-0-------0-------|
G:-3-5---5---0-3-5---5-5---2p3h2-0--|-3-5---5---0-3-5-5-------0---3---|
D:---------------0---0-0---------0--|---------------0-0---0-----------|
A:----------------------------------|---------------------------------|
E:----------------------------------|---------------------------------|
  development and support by
dmitry ivanov