rock
 
|tablatures   |lyrics   |discussion forums   |more tabs @ XGuitar.com

Eagles tabs

The Sad Cafe bass tab

eagles / sad café.btab

TablEdited by Jan Bjorklund
Tuning : E A D G 	Time Signature: 4/4

 tempo 100       |       |        |       |       |       |
|--------------------------------|--------------------------------|
|--------------------------------|--------------------------------|
|--------------------------------|----2---------------------------|
|------------------------2-------|--------------------------------|

 |       |       |       |        |       |       |       |
|--------------------------------|--------------------------------|
|2-------------------------------|4-------------------------------|
|--------------------------------|--------------------------------|
|--------------------------------|----------------2---------------|

 |       |       |       |        |       |       |       |
|--------------------------------|--------------------4-----------|
|--------------------------------|----------------------------2---|
|2-------------------------------|2-----------------------2-------|
|--------------------------------|--------------------------------|

 |       |       |       |        |       |       |       |
|--------------------4-----------|--------------------------------|
|------------------------4-------|--------------------4-----------|
|--------------------------------|----------------------------2---|
|----------------------------2---|------------------------2-------|

 |       |       |       |        |       |       |       |
|--------------------------------|--------------------4-----------|
|--------------------------------|----------------------------2---|
|--------------------------------|2-----------------------2-------|
|--------------------2-----------|--------------------------------|

 |       |       |       |        |       |       |       |
|--------------------4-----------|--------------------------------|
|------------------------4-------|------------4-------------------|
|--------------------------------|----------------------------2---|
|----------------------------2---|--------------------------------|

 |       |       |       |        |       |       |       |
|--------------------------------|--------------------4-----------|
|--------------------------------|----------------------------2---|
|--------------------------------|2-----------------------2-------|
|--------------------------------|--------------------------------|

 |       |       |       |        |       |       |       |
|--------------------4-----------|--------------------------------|
|------------------------4-------|--------------------4-----------|
|--------------------------------|----------------------------2---|
|----------------------------2---|------------------------2-------|

 |       |       |       |        |       |       |       |
|--------------------------------|--------------------4-----------|
|--------------------------------|----------------------------2---|
|--------------------------------|2-----------------------2-------|
|--------------------2---2-------|--------------------------------|




Created with TablEdit http://www.tabledit.com/
  development and support by
dmitry ivanov