rock
 
|tablatures   |lyrics   |discussion forums   |more tabs @ XGuitar.com

Eagles tabs

The Greeks Dont Want No Freaks guitar tab

The Greeks Don't Want No Freaks
By the Eagles (from The Long Run, 1979)
Transcribed by Hilary G.

This is the basic riff. There are some changes to it throughout the song,
but you can figure them out.

	e---------------------|--------------|-----------------------|----------
	B---------------------|--------------|-----------------------|----------
	G---------------------|--------------|-----------------------|----------
	D---------------------|--------------|-----------------------|----------
	A------7-10------5-8--|--------------|------7-10--------5-8--|----------
	E--8-8-------6-6------|--8-----------|--8-8---------6-6------|--8-------

	
	e---------------------|---------------------
	B---------------------|---------------------
	G---------------------|---------------------
	D---------------------|---------------------
	A------7-10------5-8--|------7-10------5-8--
	E--8-8-------6-6------|--8-8-------6-6------

	e---------------------|--------------
	B---------------------|--------------
	G---------------------|--------------
	D---------------------|--------------
	A------7-10------5-8--|--------------
	E--8-8-------6-6------|--8-----------

Rock on

   ___________________________________
|~|                                   |~|
|~|                                   |~|
|~|  "Don't you know that             |~|
|~|   you are a shooting star..."     |~|
|~|      --Paul Rodgers/Bad Company   |~|
|~|                                   |~|
|~|___________________________________|~|
  development and support by
dmitry ivanov