rock
 
|tablatures   |lyrics   |discussion forums   |more tabs @ XGuitar.com

Eagles tabs

Take It Easy bass tab

eagles take it easy.btab (unfinnished)

TablEdited by Jan Bjorklund
Tuning : E A D G 	Time Signature: 4/4

 |       |       |       |        |       |       |       |
|0-----------0-------0---0---0---|0-----------0-------0---0---0---|
|--------------------------------|--------------------------------|
|--------------------------------|--------------------------------|
|--------------------------------|--------------------------------|

 |       |       |       |        |       |       |       |
|0-----------0-------0---0---0---|0-----------0-------0---0-------|
|--------------------------------|----------------------------3---|
|--------------------------------|--------------------------------|
|--------------------------------|--------------------------------|

 |       |       |       |        |       |       |       |
|0-----------0-------0---0---0---|0-----------------------0---0---|
|--------------------------------|--------------------------------|
|--------------------------------|--------------------------------|
|--------------------------------|--------------------------------|

 |       |       |       |        |       |       |       |
|0-----------------------0---0---|0-----------0-----------2-------|
|--------------------------------|----------------------------0---|
|--------------------------------|--------------------------------|
|--------------------------------|--------------------------------|

 |       |       |       |        |       |       |       |
|0-----------0---0-----------0---|0-----------0---0-----------0---|
|--------------------------------|--------------------------------|
|--------------------------------|--------------------------------|
|--------------------------------|--------------------------------|

 |       |       |       |        |       |       |       |
|0-----------0---0---------------|0-----------0---0---------------|
|--------------------------------|--------------------------------|
|--------------------------------|--------------------------------|
|--------------------------------|--------------------------------|

 |       |       |       |        |       |       |       |
|0-----------0---------------0---|--------------------------------|
|----------------0-------0-------|--------------------------------|
|--------------------------------|3-----------3---3---------------|
|--------------------------------|--------------------------------|

 |       |       |       |        |       |       |       |
|--------------------------------|--------------------------------|
|--------------------0-----------|0-----------0---0-------3-------|
|----------------2-----------2---|----------------------------2---|
|3-----------3-------------------|--------------------------------|

 |       |       |       |        |       |       |       |
|------------------------0-------|--------------------------------|
|--------------------------------|--------------------------------|
|3-----------3---3-----------0---|----------------------------0---|
|--------------------------------|3-----------3---3---------------|

 |       |       |       |        |       |       |       |
|--------------------------------|--------------------------------|
|2-------2---2---2-------2-------|2-----------2---2---------------|
|----------------------------2---|----------------------------0---|
|--------------------------------|--------------------------------|

 |       |       |       |        |       |       |       |
|--------------------0-----------|--------------------------------|
|----------------0-------2---0---|--------------------------------|
|3-----------3-------------------|--------------------------------|
|--------------------------------|3-----------3---3-----------0---|

 |       |       |       |        |       |       |       |
|--------------------------------|------------------------0-------|
|------------------------2-------|--------------------------------|
|0-----------0---0-----------0---|3-----------3---3-----------0---|
|--------------------------------|--------------------------------|


Created with TablEdit http://www.tabledit.com/
  development and support by
dmitry ivanov