rock
 
|tablatures   |lyrics   |discussion forums   |more tabs @ XGuitar.com

Eagles tabs

Peaceful Easy Feeling guitar tab

From: "richard rayner" 
Subject: eagles/peaceful_easy_feeling.tab
Date: Sun, 04 Apr 99 21:47:02 PDT

This is a flat picking acoustic version of this song the melody is played on the guitar so there are no lyrics.
peacfull easy feeling
music by the eagles
transcribed by Rick Rayner
rayn3@kuntrynet.com
angelfire.com/co/acoustic



      3x
   [---------] Verse
e:---2-----3----------2---------3--------2--------3-----2--------3---------|
B:---3-----3----------3---------0--------3--------0-----3--------0--------2|
G:---2-----2----------2------0--0--0--2--2--------0-----2--------0--------2|
D:---0-----0-------0--0---4-----0--------0--4--0--0--0--0--4--0--0--0--2--2|
A:------------------------------2-----------------2--------------2--------0|
E:------------------------------3-----------------3--------------3---------|


                                                                       

  chorus
e:---------------3--------2--------3-----2--------3--------0-----------|
B:---------------0--------3--------0-----3--------0--------3-----2-----|
G:----------2--0-0--0--2--2--------0-----2-----0--0--------0-----2-----|
D:----2--4-------0--------0--4--0--0--0--0--4-----0--0-----2--2--2--0--|
A:---------------2-----------------2--------------2-----2--2-----0-----|
E:---------------3-----------------3--------------3--------------------|





e:---2--------3--------2--------3-----0-----------|
B:---3--------0--------3--------0-----3-----2-----|
G:---2-----0--0--0--2--2-----0--0-----0-----2-----|
D:---0--4-----0--------0--4-----0-----2-----2--0--|
A:------------2-----------------2--2--2--0--0-----|
E:------------3-----------------3-----------------|
  development and support by
dmitry ivanov