rock
 
|tablatures   |lyrics   |discussion forums   |more tabs @ XGuitar.com

Eagles tabs

Outlaw Man bass tab

Outlaw Man  - Eagles (Desperado)

TABBED by hawkhuff


   Intro & Verse: 4X                
G----------------------------|
D----------------------------|
A----------7 77-7------------|
E-----------5-----5--0505----|

   Chorus: Woman don't try to love me......
  (careful with the timing here; it's different)
G--------------------------------|
D--------------------------------|
A----5--33----7533--------7------|
E-----3---3355----33-55--5-------|

   Bridge is same as the verse
   but has the improvisations.

   Outro: repeat,(Jam & improvisation)
G-----------------------|--------------------------------|
D-----------H5/77775----|----------------H5/7777 H5/7777-|
A------777----------757-|H5/7777 H5/7777-----------------|
E--0555---5-------------|--------------------|

  Here are some examples of the improvisations at the ending:
G-------------777----------------|
D---------S7/9---97577-77755-----|
A--H5/7777------------------75---|
E--------------------------------|

 
G-------------777------------------|
D---------S7/9---97577-7-7755------|
A--H5/7777-------------------757---|
E---------------------5-5----------|

   You have to work at it to get the timing for each verse,
   Careful, they are slightly different each time.
   Then, near the ending do some of the same type of improv
   but at the upper registers.


questions:   hawkhuff@msn.com
  development and support by
dmitry ivanov