rock
 
|tablatures   |lyrics   |discussion forums   |more tabs @ XGuitar.com

Eagles tabs

Out Of Control bass tab

TITLE: Out of Control   by Eagles (Desperado)
TABBED by hawkhuff

For Jake Lengen.

Intro: 
G----------|
D----------|
A----------|
E--5-1-3-5-|

   Verse:4X     2X        1X then
G-----------|---------|------4-----------|
D-----------|------4--|--4477-7--47-474--|
A--------4--|--4477-7-|-5-------5--5---5-|
E--0-4477-7-|-5-------|------------------|

     4X         1X        1X  then back to verse.
G-----------|---------|------4-------------------|
D-----------|------4--|--4477-7------------------|
A--------4--|--4477-7-|-5------7-S7---------4567-|
E--0-4477-7-|-5-------|------------555555555-----|

  Lead part is same as the verse.

  Bridge right after lead parts:

G---------------------------------------------|
D---------------------------------------------|
A--55555555------------------------7777777777-|
E----------55555555-77777777777---------------|


  Back to verse.


questions:   hawkhuff@msn.com
  development and support by
dmitry ivanov