rock
 
|tablatures   |lyrics   |discussion forums   |more tabs @ XGuitar.com

Eagles tabs

Lyin' Eyes bass tab

G|------------------------------------------------|
D|-------------------55-----------------020-------|
A|-----55-----55--3*----3*-2-00-----002-----------|
E|-3*-----3*---------------------00---------------|

G|-------------------------0-2-0--------------------|
D|--------------------0--2--------------------------|
A|---55----55--3*-2-0-------------------------------|
E|3*----3*------------------------------------------|

G|--------------------------------------------------|
D|----------------2----------0----------------------|
A|----333----3------2----0-2-4----------------------|
E|333------3---3----------------333-----------------|

G|------------------------020-----------------------|
D|-------------2---0--0-2------2-0------------------|
A|---0-2-3-0-0--0------------------2-0--------------|
E|11------------------------------------3-----------|
  development and support by
dmitry ivanov