rock
 
|tablatures   |lyrics   |discussion forums   |more tabs @ XGuitar.com

Eagles tabs

Love Will Keep Us Alive bass tab

Song = Love Will Keep Us Alive
Artist = Eagles
Album = Hell Freezes Over
Lyrics = P.Vale/J.Capaldi/P.Carrack

Tabbed by W.Mitty (04/09/00)

A Major (F# minor)
Tempo = 49

I don't claim this is 100% perfect but this is how I play it.
In this song there is a slide that keeps repeating which looks like
this -4\0- (bar 3 for example), to play it slide from 4 to 2, don't
pick 2, then play the open string.

Key:  \= slide   |= bar lines (not accurate,only use as guide)
         down

                                      I was standing-       you were
G--------|----------|----------|--------|--------|----------|---------
D--------|--24--4-4-|-4\0--0-0-|-2--2---|--------|--24--4-4-|-0--0-0--
A-0--0-0-|-4--------|----------|--------|-0--0-0-|-4--------|---------
E--------|----------|----------|------0-|--------|----------|---------


  hide   Lost & lonely-                  love will-   Don't you worry
         |Fig 1..  ..   ..   ..   ..   ..  ..end fig 1|
G--------|--------|----------|---------------|--------|--------|
D-2--2-2-|--------|--24--4-4-|-4\0---0-2-----|---(7-7)|--------|
A--------|-0--0-0-|-4--------|---------------|-0--0-0-|-0--0-0-|
E--------|--------|----------|---------------|--------|--------|
                                       ^          ^ ^
                                      long       (V2 uses
                                                 high A)


           The world is changing-        I would die for you -  baby
G----------|--------|--------|-------|------------|----------|--------
D--24--4-4\|-0--0-0-|-2------|-Fig 1-|-----0--0-0-|-024--4-4-|4-------
A-4--------|--------|----2---|-------|-2-4--------|----------|--2--2-2
E----------|--------|------0-|-------|------------|----------|--------



               Now I've-    (Guitar solo ..   ..   ..   ..   ..   ..)
G--------------|-----------|-----------|----------|----------|--------
D--02--0-------|-Fig 1-----|-4-0-------|--24--4-4-|-4\0--0-0-|--------
A-4-------4--2-|---V2------|----0--0-0-|-4--------|----------|-0--0-0-
E--------------|-----------|-----------|----------|----------|--------



    I would die for you-       baby there's-      I was standing
G------------|----------|----------|--------------|--------|----------
D-----0--0-0-|-244--4-4-|-40-------|--02--0-------|--------|--24--4-4-
A-2-4--------|----------|---2--2-2-|-4-------4--2-|-0--0-0-|-4--------
E------------|----------|----------|--------------|--------|----------



             hide   Lost & lonely-        when we're hungry
G----------|--------|--------|----------|------------|---------|
D-4\0--0-0-|-2------|--------|--24--4-4-|-4\0--0-2---|------24-|
A----------|----2---|-0--0-0-|-4--------|------------|-0---4---|
E----------|------0-|--------|----------|------------|---------|
                                                 


G------------|---------|------------|--------|----------------------
D-4\0--0-2---|------24-|-4\0-----2--|--------|----------------------
A------------|-0---4---|------------|-0--0-0-|-0------0-------------
E----------0-|---------|------------|--------|----------------------
                                                      ^
                                                   Late, with cymbal
        

(Printing: load this into Notepad, set left & right margins to
10mm and it will print perfectly.)
  development and support by
dmitry ivanov