rock
 
|tablatures   |lyrics   |discussion forums   |more tabs @ XGuitar.com

Eagles tabs

In The City bass tab

The Eagles - In The City
Tabbed by Dibbley
Standard Tuning

Intro   2x
G|------------|
D|-0---7----7-|
A|------------|
E|------0-----|

Verse   3x
G|------------|
D|-0--7-----7-|
A|------------|   Different recorded versions have a slide down on the A here and there
E|-------0----|

Verse Outro 1 1x
|--------------|
|--0--/12------|
|---------0----|
|------------0-|

Verse 3x

Verse Outro 2
|---------|
|--0--/12-|
|---------|
|---------|

Chorus (with var.) 4x
G|------------------------------7-6-4--|
D|-7-7--7-7-7--4-6-7--7-7--7-7-7-----6-|   slide up to 12th fret D for var.
A|-------------------------------------|
E|-------------------------------------|

Chorus Outro
G|-------------|
D|-7-----7---7-|
A|-----5-------|
E|----3----0---|

Verse over Guiter Solo 2x
Verse 3x
Verse Ourto 1 1x
Verse 3x
Verse Outro 2 1x
Chorus to end on fade
  development and support by
dmitry ivanov