rock
 
|tablatures   |lyrics   |discussion forums   |more tabs @ XGuitar.com

Eagles tabs

After The Thrill Is Gone guitar tab

From: Kenny Winningham
Artist: Eagles
Album: One Of These Nights
Song: After The Thrill Is Gone

This is the middle solo:

--------------------------|-----------------|--10BU12-10-8-7-8-7h8p7--------|
--5/8-5-3h5---------------|------------8----|-----------------------10-8-10-|
-----------4~-----4 2p0h5-|-----5-7-7/9-9p7-|-------------------------------|
-----------------5--------|--5h7------------|-------------------------------|
--------------5-5---------|-----------------|-------------------------------|
--------------------------|-----------------|-------------------------------|

-------------------------------------15--------|-------------------|
--8--------------------------------------------|-------------------|
---9----------12-14BU16BD14p12-14BU16--BD14p12-|----------12-12h14-|
----9-10-12-14---------------------------------|--12-12h14---------|
-----------------------------------------------|-------------------|
-----------------------------------------------|-------------------|

--------------------17BU19BD17-15-15h17p15---|
-----------15BU17-15----------------------17-|
--14BU16-14----------------------------------|
---------------------------------------------|
---------------------------------------------|
---------------------------------------------|

I hope you find this useful!
Kenny Winningham
  development and support by
dmitry ivanov