rock
 
|tablatures   |lyrics   |discussion forums   |more tabs @ XGuitar.com

Dire Straits tabs

Your Latest Trick guitar tab

Your Latest Trick

Here is the tab to the main sax part that repeats over and over,
Its in C#minor.
Occaisionally you hear another little whine or two from the sax
but theyre no included

                                         full
E----------||--------------------------|---------------------|
B----------||--------------------------|---------------------|
G----------||o-------------------------|---------------------|
D----11-12-||o-14----13-11----11-13-14-|-14^-------14-13--11-|
A--11------||-----11-------------------|---------------------|
E----------||--------------------------|---------------------|

E-|------------------------|-----------------------|--------------------|
B-|------------------------|-----------------------|--------------------|
G-|-------------------11---|-----------------------|---------------11---|
D-|----------------------14|-(14)---------11-------|-------------11--11-|
A-|-14-------------14------|-----------------------|-13-----------------|
E-|------------------------|-----------------------|--------------------|

E-|---------------------|-----------------------|----------------------||
B-|---------------------|-----------------------|----------------------||
G-|---------------------|-------13--------------|-13--14-13-----------o||
D-|-13------------------|-----13-----16--14--16-|------------16-14-16-o||
A-|-----14--------------|-15--------------------|---15-----------------||
E-|---------------------|-----------------------|----------------------||

the single full bend I included (^) is just the way I do it, do it how
you like so long as the not you play is F#. The last three notes might
need checking.

Sounds good with HEAPS of distortion.


  development and support by
dmitry ivanov