rock
 
|tablatures   |lyrics   |discussion forums   |more tabs @ XGuitar.com

Dire Straits tabs

On Every Street guitar tab

On Every Street - Dire Straits

Notes:  This is truly a beautiful piece of playing on Knopfler's part.
The bracketed notes are ghost notes, which sound out the melody.  Try
subdividing the bass part slightly, to prevent the notes from over-
sustaining, and let the melody ring a little louder and longer.  Not easy.
Does anyone out there know how to play the intro to "Wild West End"?.
If someone does, I would love to see it.

                                        Regards: Guy Luke.

On Every Street
Ostinato Outro Riff

     F         G6              D/F#       Em7           F          Em
     |         |               |          |             |          |
||--------0--(0)-----------|------------------------|--------------------------
||----------------0-----3--|--(3)-------------------|----------0--(0)--------1-
|*--2----------------------|----------0--(0)-----2--|--(2)-------------0-------
|*-----0-------------0-----|-------0----------0-----|-------0-------------2----
||-------------------------|------------------------|--------------------------
||--1---------3------------|---2----------0---------|---1----------0-----------


    Gsus4         G
    |             |
|------------------------------||
|--(1)--------0--(0)--------0--||
|-------0-------------0--------*|
|----------0------0------0-----*|
|------------------------------||
|---3--------------------------||
  development and support by
dmitry ivanov