rock
 
|tablatures   |lyrics   |discussion forums   |more tabs @ XGuitar.com

Dire Straits tabs

News bass tab

From: "Erik Hubendick" 
Subject: d/dire_straits/news.btab
Date: Sat, 17 Aug 2002 13:31:16 +0200

   Dire Straits - News
 
   by erik hubendick fender-bender@telia.com
   comments, suggestions, questions, just mail
   
   |Intro, Verses, solo|   (last bar variates before chorus and solo)
   Em      Bm       C       Bm       Am               C
   1 & 2 & 3 & 4 &  1 & 2 & 3 & 4 &  1 & 2 & 3 & 4 &  1 & 2 & 3 & 4 &   
 ||----------------|----------------|----------------|----------------|| 
 ||----------------|----------------|----------------|----------------||
 ||------0-2-----2-|3-----3-2-----2-|--------------2-|3------33-2-----||
 ||0---------------|----------------|5-------03-5----|-------------32-||
 
     |Chorus|
     D             C  D                Em            C  D             C
  &  1 & 2 & 3 & 4 &  1 & 2 & 3 & 4 &  1 & 2 & 3 & 4 &  1 & 2 & 3 & 4 &   
  --|----------------|----------------|----------------|----------------| 
  --|----------------|----------------|----------------|----------------|
  3-|5-------------3-|5-------------5-|7-------------3-|5-------------3-|
  --|----------------|----------------|----------------|----------------|

   D                C                Cadd9/A *
   1 & 2 & 3 & 4 &  1 & 2 & 3 & 4 &  1 & 2 & 3 & 4 &  1 & 2 & 3 & 4 &   
  |----------------|----------------|----------------|----------------| 
  |----------------|----------------|----------------|----------------|
  |5-------------5-|3---------------|----------------|----------------|
  |----------------|----------------|5---------------|----------------|
  
  The song just goes around on the two parts (outro in A) 
  
  *sounds like this chord I think: |-10-
                                   |-8--
                                   |-9--
                                   |-10-
                                   |-0--
                                   |----
  development and support by
dmitry ivanov