rock
 
|tablatures   |lyrics   |discussion forums   |more tabs @ XGuitar.com

Deep Purple tabs

Wring That Neck guitar tab

|------------------|------------------|-----------------|
|------------11-8~-|------------11-8~-|------------11-8-|
|-0-7h10p7p0-------|-0-7h10p7p0-------|-0-7h10p7p0------|
|------------------|------------------|-----------------|
|------------------|------------------|-----------------|
|------------------|------------------|-----------------|


|----------------------------------------|----------8h9p8----8----|
|--------11-8---------11-8---------11-8~-|--------8-------11---11-|
|-10p7p0-------10p7p0-------10p7p0-------|-0-7-10-----------------|
|----------------------------------------|------------------------|
|----------------------------------------|------------------------|
|----------------------------------------|------------------------|



|----------8h9p8----8----|----------------------|---------------------|
|--------8-------11---11-|--------8h9p8----8----|---------------------|
|-0-7-10-----------------|-0-7-10-------10---10-|-0-7-9-10-9-7--------|
|------------------------|----------------------|--------------10-8-7-|
|------------------------|----------------------|---------------------|
|------------------------|----------------------|---------------------|



pretty sure this parts wrong

|--------------------------------------|-------------------------------------|
|----------------------------10-11-10~-|----------------------------10-11-10-|
|-------------------10-12-13-----------|-------------------10-12-13----------|
|----------10-12-13--------------------|----------10-12-13-------------------|
|-10-12-13-----------------------------|-10-12-13----------------------------|
|--------------------------------------|-------------------------------------|



|-----------------|-----------------------|--------------|
|-6p8-6---6-------|-----------------------|--------------|
|-------7---7-5-7-|-----3-5-3h5p3---------|---5----------|
|-----------------|-5-7-----------7-5-3-5-|-5-5-5--------|
|-----------------|-----------------------|-5-3-5-3-4-5~-|
|-----------------|-----------------------|-3---3--------|
  development and support by
dmitry ivanov