rock
 
|tablatures   |lyrics   |discussion forums   |more tabs @ XGuitar.com

Deep Purple tabs

Wasted Sunsets bass tab

BASS

G||------------------|-------------------|---------------------|
D||------------------|-------------------|---------------------|
A||------------------|-------------------|---------------------|
E||------------------|--0----------------|--5------5--5--------|



----------------------|-----------------------|---------------------|
----------------------|-----------------------|---------------------|
----------------------|--5--------3-----7-5-3-|--2----2/---7--------|
--3------3-3-2--------|-----------------------|---------------------|



----------------------|---------7------------|------------------------|
--7------7--7-------7-|--5--------5-4--------|--4---------------------|
----------------------|----------------------|-------5----3----7-5-3--|
----------------------|----------------------|------------------------|



----------------------|-----------------------|----------------------|
-----------------2----|------------7---7----7-|--5-----7-5--4--------|
--2------2/-7---------|---------7-------------|----------------------|
----------------------|--5--------------------|----------------------|



------------------------|---------------------|-------------------------|
------------------------|---------------------|---------7---------5-----|
--5------5--3-----7-5-3-|--2----2/---7--------|--5--------5----5-----5--|
------------------------|---------------------|-------------3-----------|



-------------------5-------|---------------------|-------------------------|
---------------5-----7-5---|---------------------|-----------7-------7-----|
-----------5-7---7-------7-|---------------------|---------7------7-----7--|
--5------------------------|--8--------8------8--|--5----------5-----------|



---------5-------------|-------------------------|-----------------------|
-------------5---------|------------------7------|-----------------------|
--5--------5-----------|---------5-7---------7-5-|--3------3-------------|
------------------5----|--5----------5-----------|------------3----7--8--|



-------------------|----------------------|---------------------|
-------------------|---------7---7--------|--5---------4--------|
--5----------------|-----------7----------|-------3-------------|
-------------------|--5-------------------|---------------------|



------------------------|---------------------|---------------------|
------------------------|---------------------|------------7--------|
--5------5-----7--5--3--|--2----2/---7--------|----------7----------|
------------8-----------|---------------------|--5------------------|



----------------------|----------------------|---------------9--------|
--5-----7-5--4--------|-------3---------2----|-------------------9----|
----------------------|--5---------3---------|--2----2/---7--------7--|
----------------------|----------------------|------------------------|



--------7-----------------|----------------------5-------|
-----7-----7--------5-----|--------7---------5-----7-5---|
--5--------------5-----5--|-----7-----7--5-7---7-------7-|
--------------3-----------|--5---------------------------|



------------------------|-------------------------|--------5-----------------|
--------5---------------|----------7-------7------|-----7-----7--------5-----|
--3-------3-------------|-------7------------7----|--5--------------5-----5--|
-------------3--3----3--|--5----------5--------5--|--------------3-----------|



-----------------------|-------------------------|-------------------|
----------7------------|-------------5-----------|-------------------|
-------7---------------|---------7-8--------2-3--|--5----------------|
--5----------5------7--|--8---------------3------|-------------------|



----------------------|---------7------------|------------------------|
--7------7--7-------7-|--5--------5-4--------|--4---------------------|
----------------------|----------------------|-------5----3----7-5-3--|
----------------------|----------------------|------------------------|



----------------------|-----------------------|----------------------|
-----------------2----|------------7---7----7-|--5-----7-5--4--------|
--2------2/-7---------|---------7-------------|----------------------|
----------------------|--5--------------------|----------------------|



------------------------|---------------------|-------------------------|
------------------------|---------------------|---------7---------5-----|
--5------5--3-----7-5-3-|--2----2/---7--------|--5--------5----5-----5--|
------------------------|---------------------|-------------3-----------|



-------------------5-------|---------------------|-------------------------|
---------------5-----7-5---|---------------------|-----------7-------7-----|
-----------5-7---7-------7-|---------------------|---------7------7-----7--|
--5------------------------|--8--------8------8--|--5----------5-----------|



---------5-------------|-------------------------|-----------------------|
-------------5---------|------------------7------|-----------------------|
--5--------5-----------|---------5-7---------7-5-|--3------3-------2--3--|
------------------5----|--5----------5-----------|------------3----------|



-------------------|-----------------------|----------------------|
-------------------|--7------7-7-7-------7-|--5-----7-5--4--------|
--5----------------|-----------------------|----------------------|
-------------------|-----------------------|----------------------|



------------------------|----------------------|------------------------|
------------------------|----------------------|--7--------7--7-------7-|
--5------5--3-----7-5-3-|--2----2/---7------7--|----7-------------------|
------------------------|----------------------|------5-----------------|



----------------------|------------------------|----------------------|
--5-----7-5--4--------|------------------------|----------------------|
----------------------|--5------5-----7--5-----|------------7----7----|
----------------------|------------8--------8--|--7----7--------------|



-------------------|------------------|------------------||
-------------------|------------------|------------------||
-------------------|------------------|------------------||
--5----------------|------------------|------------------||
  development and support by
dmitry ivanov