rock
 
|tablatures   |lyrics   |discussion forums   |more tabs @ XGuitar.com

Deep Purple tabs

Stormbringer bass tab

Deep Purple - Stormbringer
Submitted By: Cid_Highwind
EMail: Cid_Highwind83@hotmail.com


G|--------------------------------------||
D|--------------------------------------||
A|-757575--------------5--------7-5-----||
E|--------757575--02/7---757575----7-5--||

G|------------------------------------------||
D|-5----------------------5-----------------||
A|--777-5-777-5-777-5-777--777-5-777-5------||
E|------------------------------------76553-||

G|--------------------------------------------------------------------------------------------
D|--------------------------------------------------------------------------------------------
A|-----3-532---5-3-232323-----5----------5-----------------------5----------------------------
E|-0-3-------0------------0-3---5--5-777---777-5-777-5-777-5-777---777-5-777-5-777-5-777-5-777
-------------------||
-------------------||
-75--3-------------||
----5--------------||

Intro X1
Vers X4
Chorus X1
Vers X4
Chorus X1
Intro X1
Vers X4
Chorus X1
Vers X4
Outro (repeat vers) X6


Cid_Highwind83@hotmail.com
  development and support by
dmitry ivanov