rock
 
|tablatures   |lyrics   |discussion forums   |more tabs @ XGuitar.com

Deep Purple tabs

Space Truckin guitar tab


----------------------|-------------------------|--------------5-----------|
----------------------|-------------------------|----8b-----8b---8-5-------|
----------------------|------5b------------5b---|--------------------8-7-6-|
----------------------|--5/7----7----5--7-------|--------------------------|
----------------------|-------------------------|--------------------------|
--0----1----2----3----|-------------------------|--------------------------|



--------------------------|-----5------5------5------5--|
--------------------------|-----5--3/5----3/5----3/5----|
----7-5-----------5b------|-----------------------------|
--7-----7-5--7-------7/---|-----------------------------|
--------------------------|-----------------------------|
--------------------------|--5--------------------------|



------5-------------------------|---------------------|
--3/5-----8---7---5-------------|------------------8b-|
--------x---x---x-----7---5b----|------5b-------------|
--------------------x---x----7~-|---------7/----------|
--------------------------------|---------------------|
--------------------------------|---------------------|


15x 
----5----------------------------||--------------------||------------------|
-------8-5-----------------------||--------------------||------------------|
------------8--------------------||*------------------*||------------------|
--------------7h5h7-5----5~------||*------------------*||------------------|
-----------------------7------7/-||--------------------||------------------|
---------------------------------||--------------------||------------------|



-------------------|-------------------|--------------------|
-------------------|-------------------|--------------------|
-------------------|--4----------------|--4-----------------|
-------------------|--2----------------|--3-----------------|
-------------------|-------------------|-----------2--------|
--0----------------|-------------------|--------------------|



--------------------|----------------------|----------------------|
--------------------|----------------------|----------------------|
--------------------|----------------------|----------------------|
-----------5--------|--2----3----4----5----|--6----7----8----9----|
--3--------4--------|--1----2----3----4----|--5----6----7----8----|
--------------------|----------------------|----------------------|



--------------------------|--------------------------|
--------------------------|--------------------------|
--------------------------|--------------------------|
--10----11----12----13----|--14----15----16----17/---|
--9-----10----11----12----|--13----14----15----16----|
--------------------------|--------------------------|
  development and support by
dmitry ivanov