rock
 
|tablatures   |lyrics   |discussion forums   |more tabs @ XGuitar.com

Deep Purple tabs

Perfect Strangers bass tab

MUSIC X TABS

ARTIST: Deep Purple
SONG: Perfect Strangers
ALBUM: Perfect Strangers
TABBER: Al
	(prymdirective@msn.com)
TUNING: Standard Concert Pitch
	Low To High: E A D G
NOTES: The timing may seem odd, but when I play it with the CD
	it sounds great. These notes should be staccato
	(not allowed to ring out). please rate the tab

 INTRO:
>>19 Seconds of Organ Music, Then...
G||-----------------------------|---------|-----------------------------|
D||-----------------------------|---------|-----------------------------|
A||-3-5-5-5-5-5-5-5-5-5-5-5-5-5-|-3-5-----|-----------------------------|
E||-----------------------------|-----1-3-|-3-3-3-3-3-3-3-3-3-3-3-3-3-3-|

 VERSE:                                                               x2
G||-----------------------------|---------|-----------------------------|
D||-----------------------------|---------|-----------------------------|
A||-3-5-5-5-5-5-5-5-5-5-5-5-5-5-|-3-5-----|-----------------------------|
E||-----------------------------|-----1-3-|-3-3-3-3-3-3-3-3-3-3-3-3-3-3-|

 VERSE BREAK:
G||-------------------|-------------|---------------------|-------------|
D||-------------------|-------------|---------------------|-------------|
A||-------------------|-----3-------|---------------------|-----3-------|
E||-5-5-5-5-5-5-5-5-5-|-3-5---5-3-5-|-5-5-5-5-5-5-5-5-5-5-|-3-5---5-3-5-|

G||---------------------|-------------|---------------------|-------------|
D||---------------------|-------------|---------------------|-------------|
A||---------------------|-----3-------|---------------------|---0---0---0-|
E||-5-5-5-5-5-5-5-5-5-5-|-3-5---5-3-5-|-5-5-5-5-5-5-5-5-5-5-|-3---3---3---|

>>Back into the Verse x3
>>Into the Verse Break

 CHORUS:
G||-----------------|-----------------|-----------------|-----------------|
D||-----3-----------|-----------------|-----------------|-----------------|
A||-------------0-2-|-3-3-3---3-------|-5-5-5---5---5---|-------------0-3-|
E||-1-1---1-1-1-----|-------3---0-1-3-|-------5---5---5-|-3-3-3-1-3-1-----|

G||-----------------|-----------------|
D||-----------------|-----------------|
A||-5-5-5-3-5-------|-3-3-3-3-3-3-2-0-|
E||-----------1-3-5-|-----------------|

 CHORUS BREAK:
G||-----------------------------------------------|
D||-----------------------------------------------|
A||-----------------------------------------------|
E||-3-3---3-3---3-3---3-3---3-3---3-3---3-3---3-3-|

G||---2-2-2---3-3-3--0-0-0-|---2-2-2-------2-2-2--0-0-0--0-|---2-2-2---3-3-3--0-0-0-|
D||------------------------|---------3-3-3-----------------|------------------------|
A||-0-------0--------------|-0-----------------------------|-0-------0--------------|
E||------------------------|-------------------------------|------------------------|

G||---2-2-2-------2-2-2--0-0-0------------------------------|
D||---------3-3-3--------------3-3-3--2-2-2--0-0-0----------|
A||-0----------------------------------------------3-3-3--1-|
E||---------------------------------------------------------|

>>Go through the verses and the choruses and their respective breaks. The Song
  Ends on the last chorus break
  development and support by
dmitry ivanov