rock
 
|tablatures   |lyrics   |discussion forums   |more tabs @ XGuitar.com

Deep Purple tabs

No No No guitar tab

Deep Purple - No No No

 e-------------------------------------
 B-------------------------------------
 G------------------2------------------
 D-----x-------3h4-----0---------------
 A--------5h7-------------3p0----------
 E--5--------------------------3-------

 e-------------------------------------
 B-------------------------------------
 G----------------5--------------------
 D-----x-------5-----7h5-----5--7------ 
 A--------5h7-------------7------------
 E--5----------------------------------
 
 e-------------------------------------
 B-------------------------------------
 G------------------2------------------
 D-----x-------3h4-----0---------------
 A--------5h7-------------3p0----------
 E--5--------------------------3-------

 e-------------------------------------
 B-------------------------------------
 G-------------------------------------
 D-------------------------------------
 A-----5h7p5h7p5h7h5p7-etc.------------
 E--5-------------------------8--------

Enjoy!
  development and support by
dmitry ivanov