rock
 
|tablatures   |lyrics   |discussion forums   |more tabs @ XGuitar.com

Deep Purple tabs

Maybe Im A Leo guitar tab

This is the main guitar parts in Maybe I\\\'m a Leo by Deep Purple.
I haven\\\'t found any other tabs for this song, which is a shame, 
cuz this tune rocks. STANDARD TUNING

Listen to when these parts are played. I didn\\\'t tab the stuff played 
between these two main parts, you can play those however you want tho
because the guitar is just a filler there.
|------------------------------------------------------------|
|------------------------------------------------------------|
|------------------------------------------------------------|
|-------------6--------------10-8----------------------------|  play it twice
|-8-8p6---6-8--8-8-8p6-6---8------------------6-----------6-7|
|-------8----------------8--------8-8p6-3-6-8---8-8-8p6-3----|

|---------------------------------|
|---------------------------------|
|---------------------------------|
|---------------------------------|
|-8/10-8p6--6-8-----8/10-8p6---6--|
|----------8----6-8----------8---6|

This is played when \\\"Where is she now?\\\" is sung.
|---------|
|---------|
|---------|
|-8-6-5-3-|
|---------|

Solo: This is all I got, it\\\'s not much.

|-----------------------------------|
|-----------------------------------|
|-----------------------------------|
|-----------------------------------|
|------------6b-------5b-3---3~-----|
|-6/8~/3/6-8----8p6-8------5--------|
       
Please, one of the hardcore guitar tabbers out there... tab the rest of the 
first solo and all of the 2nd solo!
  development and support by
dmitry ivanov