rock
 
|tablatures   |lyrics   |discussion forums   |more tabs @ XGuitar.com

Deep Purple tabs

Love Child guitar tab

Part A :
 
E||--------------------------------------------------------------------|
B||--------------------------------------------------------------------|
G||--------------------------------------------------------------------|
D||--2---------0----2-----------------7----5----------------------0----|
A||--0----3-----------------3----0-----------------7----0----3---------|
E||--------------------------------------------------------------------|
 

Part B:
 
E||----------------------|---------------------|---------------------|
B||----------------------|---------------------|---------------------|
G||----------------------|---------------------|---------------------|
D||----------------------|---------------------|---------------------|
A||--3----3----3----3----|--3--------3----3----|--3----3----3--------|
E||--1----1----1----1----|--1--------1----1----|--1----1----1--------|
 

Part C:
 
E||----------------------|---------------------||
B||----------------------|---------------------||
G||----------------------|---------------------||
D||--3----2--------------|---------------------||
A||------------5----3----|--5---------0--------||
E||----------------------|-------3-------------||
 

Part D:
 
E||----------------------|----------------------|----------------------|
B||----------------------|----------------------|----------------------|
G||----------------------|----------------------|----------------------|
D||------------7---------|--5---------5----5----|--7--------------7----|
A||-------7---------7----|-------7--------------|------------7---------|
E||--5-------------------|----------------------|-------5--------------|
 
-----------------||
-----------------||
-----------------||
-------5---------||
--7---------5----||
------------3----||
 
Listen to the song to get the correct timing.
 
It goes like this:
 
Part A - 4x
Part B - 2x
Part A - 2x
Part B - 2x
Part A - 2x
Part C - 4x
Part A - 2x
Part B - 2x
Part D - 8x
Part A - 4x
  development and support by
dmitry ivanov