rock
 
|tablatures   |lyrics   |discussion forums   |more tabs @ XGuitar.com

Deep Purple tabs

Lady Double Dealer bass tab

#----------------------------------PLEASE NOTE---------------------------------#
#This file is the author's own work and represents their interpretation of the #
#song. You may only use this file for private study, scholarship, or research. #
#------------------------------------------------------------------------------#

-----------------------------------------------
||-------------------------------------------||
|| Song: Lady Double Dealer                  ||
|| Band: Deep Purple                         ||
||                                           ||
|| Transcribed by: Panos "The Cliff" Priftis ||
||                                           ||
|| Date: 05/04/2003                          ||
||                                           ||
|| Note: For any suggestions don't hesitate  ||
||            to email me at:                ||
||                                           ||
||  panos_the_cliff@users.basstabarchive.com ||
||                                           ||
||-------------------------------------------||
||-------------------------------------------||
||                                           ||
|| Normal Tuning                             ||
||                                           ||
|| G D A E                                   ||
||                                           ||
||-------------------------------------------||
-----------------------------------------------

Note:
I've just tabbed the riffs of the song. Just join these riffs together
by listening it.

Riff 1
G|------------------------------------------------------------------|
D|---7-5---5---5---5-7---5-7----7-5---5-----------------------------|
A|-0-----7---7---7-----7------0-----7---7--5--3---------------------|
E|------------------------------------------------------------------|

G|-------------------5----------------------------------------------|
D|---7-5---5---5---5-----5-7----7-5---5-----------------------------|
A|-0-----7---7---7-----7------0-----7---7--5--3---------------------|
E|------------------------------------------------------------------|

Riff 2
G|--------------------------|
D|--------------------------|
A|-0-00-00-00-00-00-00-00---|
E|--------------------------|

G|--------------------------|
D|--------------------------|
A|-0-00-00-00-00-00-00-00---|
E|--------------------------|

G|-------------------------------|
D|-------------------------------|
A|------5-3--0-00-0-00-----------|
E|-3-33--------------------------|

G|-------------------------------------------|
D|-------------------------------------------|
A|------------3-5-55-555-5-------------------|
E|-0-00-000-3--------------------------------|

Riff 3
G|------------------------------------------------------------------|
D|------------------------------------------------------------------|
A|-------------2-22-2-2-22--------------5-55-5-5-55-----------------|
E|-3-33-3-3-33--------------0-00-0-0-00-----------------------------|

G|-------------------------------------------------------------|
D|-------------------------------------------------------------|
A|-------------2-22-2-2-22--5-55-55-5-5----7-8-9-10-7-8-9-10---|
E|-3-33-3-3-33-------------------------------------------------|


Solo Riff
G|--------------------------|
D|--------------------------|
A|-0-000-00-000-00-000---5--|
E|---------------------3----|

G|--------------------------|
D|--------------------------|
A|-0-000-00-000-00-000------|
E|----------------------3-2-|

G|--------------------------|
D|--------------------------|
A|-0-000-00-000-00-000---5--|
E|---------------------3----|

G|--------------------------|
D|--------------------------|
A|-0-000-00-000-00-000---5--|
E|---------------------3----|

G|-----------------------|
D|-----------------------|
A|-------------3-3-3-5---|
E|-0-00-0-0-00-----------|

Ending Riff
G|----------------------------------------------|
D|->---->----------------------------------->---|
A|-5--5-3---0-0-0-0-0-0-0-0-0-0-0-0-0-0-0-0-0---|
E|----------------------------------------------|


=============================================================================
==                          TABLATURE EXPLANATION                          ==
=============================================================================
----------                            ----------
----5h8--- Hammeron                   ----(8)--- Ghost Note
----------                            ----------
----5p8--- Pulloff                    ---8-[8]-- Tie
----------                            ----------
----5/8--- Slide Up                   -----x---- Dead Note
----------                            ----------
----5\\8--- Slide Down                 ----------
----------                            ||------|| Repeat Start & End
----5~~~-- Vibrato                    ||*----*||
----------                            ||*----*||
----------                            ||------||
=============================================================================


"When a man lies, he murders
   some part of the world.
  These are the pale deaths
 which men miscall their lives.
     All this I cannot
  bear to witness any longer
    Cannot the kingdom of
   salvation take me home?"

      - Cliff Burton
  development and support by
dmitry ivanov