rock
 
|tablatures   |lyrics   |discussion forums   |more tabs @ XGuitar.com

Deep Purple tabs

Knocking At Your Back Door guitar tab

It's not my tab, unfortunately I don't know the name of guy who wrote it.
I'd downloaded it as a gp4 file and rewrote in pt.
I think it's pretty similiar to original.
Have fun, and most of all good luck.

Gtr I (E A D G B E) - 'Muted Guitar'
Gtr II (E A D G B E) - 'Distored Guitar'

  Q=124
 4/4
  Gtr I
  W          E E E E H      E E E E H      E E E E H
|----------|--------------|--------------|--------------|
|----------|--------------|--------------|--------------|
|----------|--------------|--------------|--------------|
|----------|-5-6-3-6------|-5-6-3-6------|-5-6-3-6------|
|----------|--------------|--------------|--------------|
|----------|--------------|--------------|--------------|


  H    E E E E   E E H.        H    E E E E   E E H.
|--------------|-------------|--------------|-----------|
|--------------|-------------|--------------|-----------|
|--------------|-------------|--------------|-----------|
|------5-6-3-6-|-5-----------|------5-6-3-6-|-5---------|
|--------------|-------------|--------------|-----------|
|--------------|-------------|--------------|-----------|


  E E E E E E E E   E E E E E E E E   E H    E E E   E E Q.   E E E
|-----------------|-----------------|--------------|----------------|
|-----------------|-----------------|--------6-6---|-6-6------6-6---|
|-----------------|-----------------|--------5-5---|-5-5------5-5---|
|---6---3---6-5---|---6---3---6-5---|-5------6-6---|-6-6------6-6---|
|-----------------|-----------------|--------------|----------------|
|-----------------|-----------------|--------------|----------------|


  E E Q.   E E E   E E Q.   E E E
|----------------|----------------|
|-6-6------6-6---|-6-6------6-6---|
|-5-5------5-5---|-5-5------5-5---|
|-6-6------6-6---|-6-6------6-6---|
|----------------|----------------|
|----------------|----------------|


  E E Q.   E E E   E E Q.   E E E   E E H.
|----------------|----------------|-----------|
|-6-6------6-6---|-6-6------6-6---|-6-6-------|
|-5-5------5-5---|-5-5------5-5---|-5-5-------|
|-6-6------6-6---|-6-6------6-6---|-6-6-------|
|----------------|----------------|-----------|
|----------------|----------------|-----------|


  Gtr II
  Q  E Q.   E E   +Q   E Q.   E E   +Q   T S. Q.   E E
|---------------|-----------------|---------------------|
|---------------|-----------------|---------------------|
|-7--6-9----7-6-|-(6)--2-4----2-0-|-(0)--3s4--2----2-4--|
|-7--7-9----7-7-|-(7)--2-4----2-0-|-(0)--3s4--2----2-4--|
|---------------|-----------------|---------------------|
|---------------|-----------------|---------------------|


  +H.      E E   Q  E Q.   E E   +Q   E Q.   E E   +Q   T S. Q.   E E
|--------------|---------------|-----------------|---------------------|
|--------------|---------------|-----------------|---------------------|
|-(4)------x-x-|-7--6-9----7-6-|-(6)--2-4----2-0-|-(0)--3s4--2----2-4--|
|-(4)------x-x-|-7--7-9----7-7-|-(7)--2-4----2-0-|-(0)--3s4--2----2-4--|
|----------x-x-|---------------|-----------------|---------------------|
|----------x-x-|---------------|-----------------|---------------------|


  +H     +E  E Q     E E Q.   Q  S S   E E Q  Q.   S S   E E Q   H
|------------------|-----------------|-----------------|--------------|
|------------------|-----------------|-----------------|--------------|
|-(4)----(4)-4-4/--|-----------------|-----7-----------|--------------|
|-(4)----(4)-4-4/--|-----9\------x-x-|---7-7-------x-x-|-----7\-------|
|------------------|---9-9\------x-x-|-5-5-5-------x-x-|---7-7\-------|
|------------------|-7---7\----------|-----------------|-5-5-5\-------|


            PM|
  E E E E E S S E E   E E Q.   Q  S S   E E Q  H      E E Q.   Q.
|-------------------|-----------------|-------------|-------------|
|-------------------|-----------------|-------------|-------------|
|-------------------|-----------------|-----7-------|-------------|
|-----5---------7---|-----9\------x-x-|---7-7-------|-----7\------|
|---5---------------|---9-9\------x-x-|-5-5-5-------|---7-7\------|
|-3-------5-5-5-----|-7---7\----------|-------------|-5-----------|


  W          E E Q   H      E E Q.   Q.     E E Q.   Q.
|-0--------|--------------|---------------|---------------|
|-0--------|--------------|---------------|---------------|
|-x--------|--------------|-----7\--------|---------------|
|-2--------|-----9\-------|---7-7\--------|-----7\--------|
|-2--------|---9-9\-------|-5-------------|---7-7\--------|
|-0--------|-7---7\-------|---------------|-5-------------|


            PM|
  E E E E E S S Q    E E Q.   Q.     E E Q.   Q.     E E H.
|------------------|---------------|---------------|-----------|
|------------------|---------------|---------------|-----------|
|------------------|---------------|-----7\--------|-----------|
|-----5---------7--|-----9\--------|---7-7\--------|-----7-----|
|---5--------------|---9-9\--------|-5-------------|---7-7-----|
|-3-------5-5-5----|-7-------------|---------------|-5---------|


  T S. +Q.   Q  Q    Q   H.        H.      Q    Q.   Q.   Q
|------------------|-----3-------|------------|---------------|
|------------------|-----3-------|------------|---------------|
|------------------|-------------|------------|---------------|
|------------------|-------------|------------|---------------|
|------------------|-------------|---------7--|-5----7----9---|
|-5s7--(7)---9--9s=|=3--(3)------|-0----------|---------------|


             |-3-|
  Q  S S S S S S S E Q    E E E E +H       W
|-----------------------|----------------|------|
|-----------------------|----------------|------|
|----2h4p2h4p2h4p2---2--|-------0-(0)----|------|
|-----------------------|-----0----------|------|
|-0----------------0----|---2------------|------|
|-----------------------|-3--------------|-0----|


  Q.   Q.   Q    W          +W
|--------------|----------|--------|
|--------------|----------|--------|
|--------------|----------|--------|
|--------------|-7--------|-(7)----|
|-5----7----9--|-0--------|-(0)----|
|--------------|----------|--------|


  Q  E Q.   E E   +Q   E Q.   E E   +Q   T S. Q.   E E
|---------------|-----------------|---------------------|
|---------------|-----------------|---------------------|
|-7--6-9----7-6-|-(6)--2-4----2-0-|-(0)--3s4--2----2-4--|
|-7--7-9----7-7-|-(7)--2-4----2-0-|-(0)--3s4--2----2-4--|
|---------------|-----------------|---------------------|
|---------------|-----------------|---------------------|


  +H     +E  E E E   Q  E Q.   E E   +Q   E Q.   E E   +Q   T S. Q.   E E
|------------------|---------------|-----------------|---------------------|
|------------------|---------------|-----------------|---------------------|
|-(4)----(4)-4-x---|-7--6-9----7-6-|-(6)--2-4----2-0-|-(0)--3s4--2----2-4--|
|-(4)----(4)-4-x---|-7--7-9----7-7-|-(7)--2-4----2-0-|-(0)--3s4--2----2-4--|
|----------------2-|---------------|-----------------|---------------------|
|------------------|---------------|-----------------|---------------------|


  +H     E E E E   Q  E Q.   E E   +Q   E Q.   E E   +Q   T S. Q.   E E
|----------------|---------------|-----------------|---------------------|
|----------------|---------------|-----------------|---------------------|
|-(4)------------|-7--6-9----7-6-|-(6)--2-4----2-0-|-(0)--3s4--2----2-4--|
|-(4)------------|-7--7-9----7-7-|-(7)--2-4----2-0-|-(0)--3s4--2----2-4--|
|----------x---2-|---------------|-----------------|---------------------|
|----------------|---------------|-----------------|---------------------|


  +H.      E E   Q  E Q.   E E   +Q   E Q.   E E   +Q   T S. Q.   E E
|--------------|---------------|-----------------|---------------------|
|--------------|---------------|-----------------|---------------------|
|-(4)------x-x-|-7--6-9----7-6-|-(6)--2-4----2-0-|-(0)--3s4--2----4----|
|-(4)------x-x-|-7--7-9----7-7-|-(7)--2-4----2-0-|-(0)--3s4--2----4----|
|----------x-x-|---------------|-----------------|---------------------|
|----------x-x-|---------------|-----------------|------------------0--|


           \3.5/
  +H.      Q        +W           E E Q.   Q  S S
|-----------------|------------|-----------------|
|-----------------|------------|-----------------|
|-----------------|------------|-----------------|
|-----------------|------------|-----9\------x-x-|
|----------7------|-(7)--------|---9-9\------x-x-|
|-(0)-------------|------------|-7---7\----------|


  E E Q  Q.   S S   E E Q   H
|-----------------|--------------|
|-----------------|--------------|
|-----7-----------|--------------|
|---7-7-------x-x-|-----7\-------|
|-5-5-5-------x-x-|---7-7\-------|
|-----------------|-5-5-5\-------|


            PM|
  E E E E E S S E E   E E Q.   Q  S S   E E Q  H      E E Q.   Q.
|-------------------|-----------------|-------------|---------------|
|-------------------|-----------------|-------------|---------------|
|-------------------|-----------------|-----7-------|---------------|
|-----5---------7---|-----9\------x-x-|---7-7-------|-----7\--------|
|---5---------------|---9-9\------x-x-|-5-5-5-------|---7-7\--------|
|-3-------5-5-5-----|-7---7\----------|-------------|-5-------------|


  W          E E Q   H      E E Q.   Q.     E E Q.   Q.
|-0--------|--------------|---------------|---------------|
|-0--------|--------------|---------------|---------------|
|-x--------|--------------|-----7\--------|---------------|
|-2--------|-----9\-------|---7-7\--------|-----7\--------|
|-2--------|---9-9\-------|-5-------------|---7-7\--------|
|-0--------|-7---7\-------|---------------|-5-------------|


            PM|
  E E E E E S S Q    E E Q.   Q.     E E Q.   Q.     E E H.
|------------------|---------------|---------------|-----------|
|------------------|---------------|---------------|-----------|
|------------------|---------------|-----7\--------|-----------|
|-----5---------7--|-----9\--------|---7-7\--------|-----7-----|
|---5--------------|---9-9\--------|-5-------------|---7-7-----|
|-3-------5-5-5----|-7-------------|---------------|-5---------|


  T S. +Q.   Q  Q     Q  T S. +E  E Q.     T S. +E  Q  +Q.   E
|-------------------|--------------------|---------------------|
|-------------------|--------------------|---------------------|
|-------------------|-------------0------|---------------------|
|-------------------|-------------0------|-2s4--(4)-2--(2)---2-|
|-------------------|----1s2--(2)---2----|---------------------|
|-5s7--(7)---9--9\--|-3------------------|---------------------|


                            |-3-|
  Q.   Q.   Q    Q  S S S S S S S E Q
|--------------|-----------------------|
|--------------|-----------------------|
|--------------|----2h4p2h4p2h4p2---2--|
|--------------|-----------------------|
|-5----7----9--|-0----------------0----|
|--------------|-----------------------|


  Q  T S. +E  E Q.     T S. +E  Q  +Q.   E
|--------------------|---------------------|
|--------------------|---------------------|
|-------------0------|---------------------|
|-------------0------|-2s4--(4)-2--(2)---2-|
|----1s2--(2)---2----|---------------------|
|-3------------------|---------------------|


                                \3.5/
  Q.   Q.   Q    W          S S E     +H.
|--------------|----------|------------------|
|--------------|----------|------------------|
|--------------|----------|------------------|
|-4----5----4--|----------|------------------|
|--------------|-7--------|------------------|
|--------------|----------|---x-0-----(0)----|


  Q  E Q.   E E   +Q   E Q.   E E   +Q   T S. Q.   E E
|---------------|-----------------|---------------------|
|---------------|-----------------|---------------------|
|-7--6-9----7-6-|-(6)--2-4----2-0-|-(0)--3s4--2----2-4--|
|-7--7-9----7-7-|-(7)--2-4----2-0-|-(0)--3s4--2----2-4--|
|---------------|-----------------|---------------------|
|---------------|-----------------|---------------------|


  +H     +E  E E E   Q  E Q.   E E   +Q   E Q.   E E   +Q   T S. Q.   E E
|------------------|---------------|-----------------|---------------------|
|------------------|---------------|-----------------|---------------------|
|-(4)----(4)-4-x---|-7--6-9----7-6-|-(6)--2-4----2-0-|-(0)--3s4--2----2-4--|
|-(4)----(4)-4-x---|-7--7-9----7-7-|-(7)--2-4----2-0-|-(0)--3s4--2----2-4--|
|----------------2-|---------------|-----------------|---------------------|
|------------------|---------------|-----------------|---------------------|


   H     E E E E   Q  E Q.   E E   +Q   E Q.   E E   +Q   T S. Q.   E E
|----------------|---------------|-----------------|---------------------|
|----------------|---------------|-----------------|---------------------|
|-(4)------------|-7--6-9----7-6-|-(6)--2-4----2-0-|-(0)--3s4--2----2-4--|
|--4-------------|-7--7-9----7-7-|-(7)--2-4----2-0-|-(0)--3s4--2----2-4--|
|----------x---2-|---------------|-----------------|---------------------|
|----------------|---------------|-----------------|---------------------|


  +H.      E E   Q  E Q.   E E   +Q   E Q.   E E   +Q   T S. Q.   E E
|--------------|---------------|-----------------|---------------------|
|--------------|---------------|-----------------|---------------------|
|-(4)------x-x-|-7--6-9----7-6-|-(6)--2-4----2-0-|-(0)--3s4--2----4----|
|-(4)------x-x-|-7--7-9----7-7-|-(7)--2-4----2-0-|-(0)--3s4--2----4----|
|----------x-x-|---------------|-----------------|---------------------|
|----------x-x-|---------------|-----------------|------------------0--|


                         |-3--|
  +E  E Q. E E E   Q    +E  E E S. S. X X X X S S S S
|------------0---|------------------------------------|
|----------0---3-|----------2-------------------------|
|----------------|-4pb6r(4)---5-4--3--2h3p2---2-5p4p2-|
|----------------|--------------------------0---------|
|-----7----------|------------------------------------|
|-(0)---7--------|------------------------------------|


  |--3--|           |-3--| |-3-|
  S +S  S S S +Q   +S  S S S S S +S  S S S
|------------------------------------------|
|------------------------------------------|
|-4-(4)-----1-(1)--(1)p0---4p2p0-(0)-2-4p0-|
|-------4-2--------------------------------|
|------------------------------------------|
|------------------------2-----------------|


                      |-3-|   |-3-|      |--3---|  |-3--|
  +S  T T S S T T S S T T T S T T T S S +S  +S  S +S  S S
|---------------------------------------------------------|
|---------------------------------------------------------|
|-(0)-4p2p0-2-4p2p0-4-4p2p0-4p2p0---2-------------------0-|
|---------------------------------4---4-(4)-(4)-2-(2)-0---|
|---------------------------------------------------------|
|---------------------------------------------------------|


         |-3-|
  Q.     S S S E    +E     +Q
|-------------------------------|
|--------------2pb3r(2)pb3r(2)--|
|-------------------------------|
|-------------------------------|
|-2pb4r==2s3s4------------------|
|-------------------------------|


                                     |-3-|       |-3-|         |-3-|
  T T T T S S T T T T T S. S S S S E S S S   S S S S S T T T T S S S S S Q.
|----------------------------------------0-|-1-0-------------------------------|
|-2h3p2p0-2--------------------------------|-----3p2p0-2-3p2p0-----------------|
|-----------4-2s1-------2--4-2-2-4s6-4-6---|-------------------2p1---1-2-------|
|-----------------4p2p0--------------------|-----------------------4-----4-----|
|------------------------------------------|-----------------------------------|
|------------------------------------------|-----------------------------------|


  |---5---|                        |-3-|
  S S S S S S S S. T S S S S S T T S S S
|-----------------------------------------|
|-------2-----3-2----------x--------------|
|-----x-----x--------7-7p6-x-9-9p7---7-9\-|
|---x-----x--------x----------------------|
|-0--------------------------------x------|
|-----------------------------------------|


   |--3--|          |--3--|  |--3---|
  +E   E E  Q      +E  E  E  E  E  +E
|----------------------9-------12-(12)--|
|----------12b14r=(12)---12-10----------|
|-(9)-11-9------------------------------|
|---------------------------------------|
|---------------------------------------|
|---------------------------------------|


                                                    |-3--| |--3--|
   +Q    S S  E E  E  E     S  S   S  E.     H     +S  S S S  S  S
|-(12)--12-x-12-9----------------|----------12----(12)-------------|
|-----------------12-12b14r10-12-|---12b14==14----(14)-----x-14-17-|
|--------------------------------|-----------------------x---------|
|--------------------------------|---------------------x-----------|
|--------------------------------|---------------------------------|
|--------------------------------|---------------------------------|


   |--3--|           |--3--|  |-3--| |-3-|  |--3--|
   S  S  S  T T T T  S  S  S  S  S S S S S  S  S  S  S  S  E
|-14----------------19-17p14-------------x-19-17p14---------------|
|-----------------x--------------------x------------17-14-17pb19--|
|----18s17-16---x------------17p16---x----------------------------|
|-------------x--------------------x------------------------------|
|-----------------------------------------------------------------|
|-----------------------------------------------------------------|


         |---3----|
   +Q    E     E  E  S  S  Q.
|---------------------------------|
|-(17)--17b19-17-16-15-14---------|
|-------------------------18b21r==|
|---------------------------------|
|---------------------------------|
|---------------------------------|


                                                                    ~~~~
    |---3----|            |-----3-----|  |---3----|            |----3----|
   +E   +E   E  E  E     +E      +E   E  E     E  E    Q      +E   +E   +E   Q   Q
|---------------------------------------------------|--------------------------------|
|-----------14-17--------------------14-------------|--------------------------------|
|-(18)-(18)-------16b18r(16)b18-(16)----14b15----16-|-14b17r=(14)-(14)-(14)-14--14\--|
|---------------------------------------------16----|--------------------------------|
|---------------------------------------------------|--------------------------------|
|---------------------------------------------------|--------------------------------|


    |-3-|     |-3-|                  |-3-|
  E S S S S S S S S E E E E     +Q   E E E Q    +S  S E   Q  H    +E. S
|-------2-4h5p4p2---2---------|-------------------------|---------------|
|-----3---------------5-3-5b7-|-(5)--5-3s2--------------|---------------|
|-0-x-------------5-----------|------------4b6r=(4)-2---|---------------|
|-----------------------------|-----------------------4-|----4----(4)-x-|
|-----------------------------|-------------------------|---------------|
|-----------------------------|-------------------------|-2-------------|


                                                    |-3--|
  E E E S S +H       +E  E E E S S S T T S S S S   +E  E E S S E Q  S S S  S
|------------------|-----------------------------|--------------------9---12--|
|------------------|-----------------------------|----------------------------|
|------------------|-------------------------1-2-|-(2)-4-6-4h6p4-6------------|
|-------2s4-(4)----|-(4)-----2-4p2-4-5p4p2-4-----|----------------------------|
|-4-5-4------------|-----4-5---------------------|----------------------------|
|------------------|-----------------------------|----------------------------|


                                               |-3-|
   Q.      Q      E  S  S  E    E  E  +H     E S S S
|-12b14r=====================|=======================|
|---------12b14r=10-12p10----|-10------------------x-|
|-------------------------11-|----11-(11)--------x---|
|----------------------------|-----------------x-----|
|----------------------------|-----------------------|
|----------------------------|-----------------------|


   E S  S S E. S S S S S S E
|-16-7h16-x-4--4h5p4-2---2-5b7r=|
|-------------------------------|
|----------------------0--------|
|-------------------------------|
|-------------------------------|
|-------------------------------|


                                                                      2/4
                                                                 \3/
                               |-3-|           |-3-|
  +Q   S S S S S S T T S S T T S S S   T T T T S S S S E. Q.   T S.    +H
|-(5)--2p0---------------------------|-------------------------------|-----|
|----------3-2p0-2-3p2p0-------------|-------------------------------|-----|
|--------------------------2p0-------|-------------------------------|-----|
|------------------------4-----4p2p0-|---2-4p0---------2-------------|-----|
|------------------------------------|-4-------4p2p0-----------------|-----|
|------------------------------------|---------------4----0----2s0---|-(0)-|


 4/4
  E E Q   H      E E Q.   Q.     E E E E E S S Q
|--------------|---------------|------------------|
|--------------|---------------|------------------|
|--------------|-----7\--------|------------------|
|-----9\-------|---7-7\--------|-----5---------7--|
|---9-9\-------|-5-------------|---5--------------|
|-7---7\-------|---------------|-3-------5-5-5----|


  E E Q.   Q.     E E Q.   Q.     E E H.        T S. +Q.   H
|---------------|---------------|-------------|-----------------|
|---------------|---------------|-------------|-----------------|
|---------------|-----7\--------|-------------|-----------------|
|-----9\--------|---7-7\--------|-----7-------|-----------------|
|---9-9\--------|-5-------------|---7-7-------|-----------------|
|-7-------------|---------------|-5-----------|-5s7--(7)---5----|


                                                       |-3-|
  Q   H.        H.      Q    Q.   Q.   Q    Q  S S S S S S S E Q
|-----3-------|------------|--------------|-----------------------|
|-----3-------|------------|--------------|-----------------------|
|-------------|------------|--------------|----2h4p2h4p2h4p2---2--|
|-------------|------------|--------------|-----------------------|
|-------------|---------7--|-5----7----9--|-0----------------0----|
|-3--(3)------|-0----------|--------------|-----------------------|


  E E E E +H       W          Q.   Q.   Q    W          +W
|----------------|----------|--------------|----------|--------|
|----------------|----------|--------------|----------|--------|
|-------0-(0)----|----------|--------------|----------|--------|
|-----0----------|----------|--------------|-7--------|-(7)----|
|---2------------|----------|-5----7----9--|-0--------|-(0)----|
|-3--------------|-0--------|--------------|----------|--------|


  |-3-| |-3-| |-3-| |-3-|
  E E E E E E E E E E E E   W
|-------------------------|------|
|---5-4-3-2-----5-4-3-2---|------|
|-----------4-----------4-|------|
|-------------------------|-7----|
|-------------------------|-0----|
|-------------------------|------|


  Q  E Q.   E E   +Q   E Q.   E E   +Q   T S. Q.   E E
|---------------|-----------------|---------------------|
|---------------|-----------------|---------------------|
|-7--6-9----7-6-|-(6)--2-4----2-0-|-(0)--3s4--2----2-4--|
|-7--7-9----7-7-|-(7)--2-4----2-0-|-(0)--3s4--2----2-4--|
|---------------|-----------------|---------------------|
|---------------|-----------------|---------------------|


  +H.      E E   Q  E Q.   E E   +Q   E Q.   E E   +Q   T S. Q.   E E
|--------------|---------------|-----------------|---------------------|
|--------------|---------------|-----------------|---------------------|
|-(4)------x-x-|-7--6-9----7-6-|-(6)--2-4----2-0-|-(0)--3s4--2----2-4--|
|-(4)------x-x-|-7--7-9----7-7-|-(7)--2-4----2-0-|-(0)--3s4--2----2-4--|
|----------x-x-|---------------|-----------------|---------------------|
|----------x-x-|---------------|-----------------|---------------------|


  +H.      E E   T S. +E  E Q.   E E
|--------------|----------------------|
|--------------|----------------------|
|-(4)------x-x-|-6s7--(7)-6s9----7-6\-|
|-(4)------x-x-|-6s7--(7)-6s9----7-6\-|
|----------x-x-|----------------------|
|----------x-x-|----------------------|


  +Q   E E +Q   E E   +Q   T S. Q.   E E
|-------------------|---------------------|
|-------------------|---------------------|
|-(6)--2s4-(4)--2-0-|-(0)--2s4--2----2-4\-|
|-(6)--2s4-(4)--2-0-|-(0)--2s4--2----2-4\-|
|-------------------|---------------------|
|-------------------|---------------------|


  +H.      E T S.   +Q   E Q.   E E    +Q   E E +Q   E E   +Q   T S. Q.   E E
|-----------------|------------------|-------------------|---------------------|
|-----------------|------------------|-------------------|---------------------|
|-(4)--------6s7--|-(7)--6s9----7-6\-|-(6)--2s4-(4)--2-0-|-(0)--2s4--2----2-4\-|
|-(4)--------6s7--|-(7)--6s9----7-6\-|-(6)--2s4-(4)--2-0-|-(0)--2s4--2----2-4\-|
|-----------------|------------------|-------------------|---------------------|
|-----------------|------------------|-------------------|---------------------|


                                                                 |-3-|
  +H.      E E   Q  E Q.    E S S   Q  E Q.   E E   Q  T S. Q.   S S S E
|--------------|------------------|---------------|----------------------|
|--------------|-3--2-3b5---3-2h3p|=2-------------|----------------------|
|-(4)----------|------------------|----2-4------2-|-0--2s4--2----0-2-0---|
|-(4)----------|------------------|---------------|--------------------4-|
|------------2-|------------------|---------------|----------------------|
|--------------|------------------|---------------|----------------------|


                                                    |-3-|
  +H     S S S S Q    +Q   E E +Q   E E   +E. S S S S S S Q  E E
|-------------------|-------------------|-------------------------|
|-------------------|-------------------|-------------------------|
|--------------0-4--|-(4)--4-5-(5)--5-7-|-(7)-5p0---0h5h7s9--7-9--|
|-(4)----4---2------|-------------------|-------------------------|
|-------------------|-------------------|-------------------------|
|-------------------|-------------------|-------------------------|


                |-3-|
  Q  E E Q    E S S S   H.      E  E        +Q   E E E S S E  E
|---------------------|------------------|---------------------------|
|---------------------|-----------10-----|-(10)--------------10------|
|-7--6-7-7b9r=7-6h7p6-|------------9pb11r|==(9)--7-----x-x----9pb11r=|
|---------------------|-9----------------|---------9---x-x-----------|
|---------------------|------------------|---------------------------|
|---------------------|------------------|---------------------------|


   +E.     S    E E E E E  E    E  E E S  S  Q   T T S E   +E  E E Q.   E E
|-----------------------7-10-|-12s10-7-7-(7)(7)----------|------------------|
|-(10)----10------------7-10-|-12s10-7-----------7-------|------------------|
|--(9)b11--9b11r7-----x------|---------9s10s=9-----7-6s4-|-(4)-0-7-4----7---|
|-----------------9---x------|-----------------------6s4-|-(4)-0-7-4----7---|
|----------------------------|---------------------------|----------------7-|
|----------------------------|---------------------------|------------------|


                                  |-3-| |-3-|
  E E T  S. Q.   E  E    E  E E E S S S S S S +S  S  E
|-7--------------7s10s|=12s10-7-7-3p2p0-----------x-10b12-|
|-7--------------7s10s|=12s10-7-7-------3p2p0-(0)---------|
|-----9s11--9---------|-----------------------------------|
|-----9s11--9---------|-----------------------------------|
|---------------------|-----------------------------------|
|---------------------|-----------------------------------|


   +E   E S S  S S  S S  S S S  S S  S
|-(10)-10-9p7----7-----------7-------------|
|-------------10---10p7----7---10---12b15--|
|-----------------------10-----------------|
|------------------------------------------|
|------------------------------------------|
|------------------------------------------|


                                                                     |--3--|
   +H     E  E  E  E    +Q    E  E  Q   E S  S   E S S S E S +Q   E  S  S  S
|--------------------|-------------------------|--------------------------14--|
|-(12)------12-10-12-|-(12)--10-12-12--10------|-------7---------------14-----|
|--------------------|--------------------9s10s|=9p7-----7----------16--------|
|--------------------|-------------------------|-----9-----9-(9)--------------|
|--------------------|-------------------------|------------------------------|
|--------------------|-------------------------|------------------------------|


   E  E  E  Q.       E      E    E  Q.       +Q   Q    Q  S S Q.   E S S
|-15-14-17-17pb19r============|======================|===================|
|-------------------17pb19r15-|-17-17b19====(17)-----|-3------5----------|
|-----------------------------|----------------------|------x----------x-|
|-----------------------------|----------------------|----x----------x---|
|-----------------------------|----------------------|-------------------|
|-----------------------------|----------------------|-------------------|


  Q  S S Q.   S S  E       +E. S S s  Q      +S   S E  E
|-----------------------|-----------------------------------|
|-7------8--------10b12r|=(10)-8-----12b14r=(12)-10---17b20-|
|------x--------x-------|----------x----------------x-------|
|----x--------x---------|-----------------------------------|
|-----------------------|-----------------------------------|
|-----------------------|-----------------------------------|


               |---3---|   |--3---|
   +Q    E  E  E  +E   E  +E   E  E
|-------14-15-16-(16)-17-(17)-17-------|
|-(17)---------------------------17b19-|
|--------------------------------------|
|--------------------------------------|
|--------------------------------------|
|--------------------------------------|


                        |---3----|      |--3---|
   +E   S  S  E  E     +E   +E   E     +E   E  E
|------17-14-17-17b19-(17)-(17)-17b19-(17)-17-14-|
|-(17)-------------------------------------------|
|------------------------------------------------|
|------------------------------------------------|
|------------------------------------------------|
|------------------------------------------------|


   |---3---|      |--3---|                     |--3--|           |--3--|
   E  +E   E     +E   E  E  Q.      E    +Q    E  E  E     +Q    E  E  E
|-17-(17)-17b19-(17)-17-14------------|----------------------------------|
|--------------------------15b17r=====|=======14-15-17b19r(17)--17-15-14-|
|----------------------------------16-|-(16)-----------------------------|
|-------------------------------------|----------------------------------|
|-------------------------------------|----------------------------------|
|-------------------------------------|----------------------------------|


   |--3--|
   E  E  E  +Q    +Q.   X X T S
|---------------------------7-9\-|
|-15p14-------------------x------|
|-------16-(16)--(16)---x--------|
|--------------------------------|
|--------------------------------|
|--------------------------------|


        |-3--|   |-3-|           |---5---|               |-3-|
   S E. E  E E E S S S S S S S   S S S S S +S  E.  +Q.   S S S
|-10s9--7----7-3-2h3p2p0-2p0---|--------------------------------|
|---------10-----------------3-|-2h3p2---2-(2)---------------x--|
|------------------------------|-------4-------2b4-(2)-----x----|
|------------------------------|-------------------------x------|
|------------------------------|--------------------------------|
|------------------------------|--------------------------------|


          |-3-|                  |-3-|
  E S S E S S S S E. Q      E. S E E E S S S S   +Q
|-5-3h5p3-------3s2-------|---------------------------|
|-------------x------5b7r=|=5--3-5-2-3---2-5----------|
|-----------x-------------|------------4-----4b8r(4)--|
|---------x---------------|---------------------------|
|-------------------------|---------------------------|
|-------------------------|---------------------------|


                   |---3---|
  +E  +E    E T S. S   +S  S   +E  T S. E
|------------------------------------------|
|-----------5------------------------------|
|-(4)-(4)b8---4h6--2b4r(2)-2b4r(2)------2--|
|----------------------------------2s4-----|
|------------------------------------------|
|------------------------------------------|


             |-3--|      |-3--|      |-3--|
  E S S S S +S  S S S S +S  S S S S +S  S S
|-------------------------------------------|
|-------------------------------------------|
|-4p2p0-2-4-(4)p2p0-2-4-(4)p2p0-2-4-(4)p2p0-|
|-------------------------------------------|
|-------------------------------------------|
|-------------------------------------------|


       |-3--|
  S S +S  S S S S T T T T S S T T T T S S T T T T
|---------------------------------------------------|
|---------------------------------------------------|
|-2-4-(4)p2p0-2-4-4p2p0---2-4-4p2p0---2-4-4p2p0-----|
|-----------------------4-----------4-----------4---|
|---------------------------------------------------|
|---------------------------------------------------|


                                                              \5/
              |-3-|           |-3-|       |-3-| |-3-|
  S S T T T T S S S S S E.  S S S S +E    S S S S S S S S S S Q.    E
|---------------------------------------|-----------------------------|
|---------------------------------------|-----------------------------|
|-2-4p2p0---0---------0-----------------|-----------------------------|
|---------4---4p2p0-2---2b4p0-4p2p0-(0)-|-4p2p0---------------------4-|
|---------------------------------------|-------4-4px-2h4-4p0-2-------|
|---------------------------------------|-----------------------------|


  |---5---| |-3-| |-3-|         |-----7-----|
  S S S S S S S S S S S S E T T S S S S S S S
|---------------------------------------------|
|-------------------------------2h3p2p0-----2-|
|-----------------------2-4-2h4---------2-4---|
|-2p0-4p2p0-5p4p2-4p2p0-----------------------|
|---------------------------------------------|
|---------------------------------------------|


     |---5---| |-3-| |-3-| |-3-|               |-3--|
  Q  S S S S S S S S S S S S S S +E    H       E  E E  Q
|------------------------------9-(9)-|-9b10r===7----7---------*|
|-3--2h3p2p0-2-3-2-0-2-3-2-0-2-------|-----------10---10b12r==*|
|------------------------------------|------------------------*|
|------------------------------------|------------------------*|
|------------------------------------|------------------------*|
|------------------------------------|------------------------*|


Duration Legend
---------------
W - whole; H - half; Q - quarter; E - 8th; S - 16th; T - 32nd; X - 64th; a - acciaccatura
+ - note tied to previous; . - note dotted; .. - note double dotted
Uncapitalized letters represent notes that are staccato (1/2 duration)
Irregular groupings are notated above the duration line
Duration letters will always appear directly above the note/fret number it represents the
duration for.  Duration letters with no fret number below them represent rests.  Multi-
bar rests are notated in the form Wxn, where n is the number of bars to rest for.  Low
melody durations appear below the staff

Tablature Legend
----------------
 h   - hammer-on
 p   - pull-off
 b   - bend
 pb  - pre-bend
 r   - bend release (if no number after the r, then release immediately)
 /\  - slide into or out of (from/to "nowhere")
 s   - legato slide
 S   - shift slide
  - natural harmonic
[n]  - artificial harmonic
n(n) - tapped harmonic
 ~   - vibrato
 tr  - trill
 T   - tap
 TP  - trem. picking
 PM  - palm muting
\n/  - tremolo bar dip; n = amount to dip
 \n  - tremolo bar down
 n/  - tremolo bar up
/n\  - tremolo bar inverted dip
 =   - hold bend; also acts as connecting device for hammers/pulls
 <>  - volume swell (louder/softer)
 x   - on rhythm slash represents muted slash
 o   - on rhythm slash represents single note slash

Misc Legend
-----------
 |  - bar
||  - double bar
||o - repeat start
o|| - repeat end
*|  - double bar (ending)
 :  - bar (freetime)
 $  - Segno
 &  - Coda
Tempo markers -  = BPM(8/16=s8/s16), where s8 = swing 8ths, s16 = swing 16ths


***************************************************************************************
* Generated using Power Tab Editor by Brad Larsen - http://powertab.guitarnetwork.org *
***************************************************************************************

Gtr I (E A D G B E) - 'Muted Guitar'
Gtr II (E A D G B E) - 'Distored Guitar'

  Q=124
 4/4
  Gtr I
  W          E E E E H      E E E E H      E E E E H
|----------|--------------|--------------|--------------|
|----------|--------------|--------------|--------------|
|----------|--------------|--------------|--------------|
|----------|-5-6-3-6------|-5-6-3-6------|-5-6-3-6------|
|----------|--------------|--------------|--------------|
|----------|--------------|--------------|--------------|


  H    E E E E   E E H.        H    E E E E   E E H.
|--------------|-------------|--------------|-----------|
|--------------|-------------|--------------|-----------|
|--------------|-------------|--------------|-----------|
|------5-6-3-6-|-5-----------|------5-6-3-6-|-5---------|
|--------------|-------------|--------------|-----------|
|--------------|-------------|--------------|-----------|


  E E E E E E E E   E E E E E E E E   E H    E E E   E E Q.   E E E
|-----------------|-----------------|--------------|----------------|
|-----------------|-----------------|--------6-6---|-6-6------6-6---|
|-----------------|-----------------|--------5-5---|-5-5------5-5---|
|---6---3---6-5---|---6---3---6-5---|-5------6-6---|-6-6------6-6---|
|-----------------|-----------------|--------------|----------------|
|-----------------|-----------------|--------------|----------------|


  E E Q.   E E E   E E Q.   E E E
|----------------|----------------|
|-6-6------6-6---|-6-6------6-6---|
|-5-5------5-5---|-5-5------5-5---|
|-6-6------6-6---|-6-6------6-6---|
|----------------|----------------|
|----------------|----------------|


  E E Q.   E E E   E E Q.   E E E   E E H.
|----------------|----------------|-----------|
|-6-6------6-6---|-6-6------6-6---|-6-6-------|
|-5-5------5-5---|-5-5------5-5---|-5-5-------|
|-6-6------6-6---|-6-6------6-6---|-6-6-------|
|----------------|----------------|-----------|
|----------------|----------------|-----------|


  Gtr II
  Q  E Q.   E E   +Q   E Q.   E E   +Q   T S. Q.   E E
|---------------|-----------------|---------------------|
|---------------|-----------------|---------------------|
|-7--6-9----7-6-|-(6)--2-4----2-0-|-(0)--3s4--2----2-4--|
|-7--7-9----7-7-|-(7)--2-4----2-0-|-(0)--3s4--2----2-4--|
|---------------|-----------------|---------------------|
|---------------|-----------------|---------------------|


  +H.      E E   Q  E Q.   E E   +Q   E Q.   E E   +Q   T S. Q.   E E
|--------------|---------------|-----------------|---------------------|
|--------------|---------------|-----------------|---------------------|
|-(4)------x-x-|-7--6-9----7-6-|-(6)--2-4----2-0-|-(0)--3s4--2----2-4--|
|-(4)------x-x-|-7--7-9----7-7-|-(7)--2-4----2-0-|-(0)--3s4--2----2-4--|
|----------x-x-|---------------|-----------------|---------------------|
|----------x-x-|---------------|-----------------|---------------------|


  +H     +E  E Q     E E Q.   Q  S S   E E Q  Q.   S S   E E Q   H
|------------------|-----------------|-----------------|--------------|
|------------------|-----------------|-----------------|--------------|
|-(4)----(4)-4-4/--|-----------------|-----7-----------|--------------|
|-(4)----(4)-4-4/--|-----9\------x-x-|---7-7-------x-x-|-----7\-------|
|------------------|---9-9\------x-x-|-5-5-5-------x-x-|---7-7\-------|
|------------------|-7---7\----------|-----------------|-5-5-5\-------|


            PM|
  E E E E E S S E E   E E Q.   Q  S S   E E Q  H      E E Q.   Q.
|-------------------|-----------------|-------------|-------------|
|-------------------|-----------------|-------------|-------------|
|-------------------|-----------------|-----7-------|-------------|
|-----5---------7---|-----9\------x-x-|---7-7-------|-----7\------|
|---5---------------|---9-9\------x-x-|-5-5-5-------|---7-7\------|
|-3-------5-5-5-----|-7---7\----------|-------------|-5-----------|


  W          E E Q   H      E E Q.   Q.     E E Q.   Q.
|-0--------|--------------|---------------|---------------|
|-0--------|--------------|---------------|---------------|
|-x--------|--------------|-----7\--------|---------------|
|-2--------|-----9\-------|---7-7\--------|-----7\--------|
|-2--------|---9-9\-------|-5-------------|---7-7\--------|
|-0--------|-7---7\-------|---------------|-5-------------|


            PM|
  E E E E E S S Q    E E Q.   Q.     E E Q.   Q.     E E H.
|------------------|---------------|---------------|-----------|
|------------------|---------------|---------------|-----------|
|------------------|---------------|-----7\--------|-----------|
|-----5---------7--|-----9\--------|---7-7\--------|-----7-----|
|---5--------------|---9-9\--------|-5-------------|---7-7-----|
|-3-------5-5-5----|-7-------------|---------------|-5---------|


  T S. +Q.   Q  Q    Q   H.        H.      Q    Q.   Q.   Q
|------------------|-----3-------|------------|---------------|
|------------------|-----3-------|------------|---------------|
|------------------|-------------|------------|---------------|
|------------------|-------------|------------|---------------|
|------------------|-------------|---------7--|-5----7----9---|
|-5s7--(7)---9--9s=|=3--(3)------|-0----------|---------------|


             |-3-|
  Q  S S S S S S S E Q    E E E E +H       W
|-----------------------|----------------|------|
|-----------------------|----------------|------|
|----2h4p2h4p2h4p2---2--|-------0-(0)----|------|
|-----------------------|-----0----------|------|
|-0----------------0----|---2------------|------|
|-----------------------|-3--------------|-0----|


  Q.   Q.   Q    W          +W
|--------------|----------|--------|
|--------------|----------|--------|
|--------------|----------|--------|
|--------------|-7--------|-(7)----|
|-5----7----9--|-0--------|-(0)----|
|--------------|----------|--------|


  Q  E Q.   E E   +Q   E Q.   E E   +Q   T S. Q.   E E
|---------------|-----------------|---------------------|
|---------------|-----------------|---------------------|
|-7--6-9----7-6-|-(6)--2-4----2-0-|-(0)--3s4--2----2-4--|
|-7--7-9----7-7-|-(7)--2-4----2-0-|-(0)--3s4--2----2-4--|
|---------------|-----------------|---------------------|
|---------------|-----------------|---------------------|


  +H     +E  E E E   Q  E Q.   E E   +Q   E Q.   E E   +Q   T S. Q.   E E
|------------------|---------------|-----------------|---------------------|
|------------------|---------------|-----------------|---------------------|
|-(4)----(4)-4-x---|-7--6-9----7-6-|-(6)--2-4----2-0-|-(0)--3s4--2----2-4--|
|-(4)----(4)-4-x---|-7--7-9----7-7-|-(7)--2-4----2-0-|-(0)--3s4--2----2-4--|
|----------------2-|---------------|-----------------|---------------------|
|------------------|---------------|-----------------|---------------------|


  +H     E E E E   Q  E Q.   E E   +Q   E Q.   E E   +Q   T S. Q.   E E
|----------------|---------------|-----------------|---------------------|
|----------------|---------------|-----------------|---------------------|
|-(4)------------|-7--6-9----7-6-|-(6)--2-4----2-0-|-(0)--3s4--2----2-4--|
|-(4)------------|-7--7-9----7-7-|-(7)--2-4----2-0-|-(0)--3s4--2----2-4--|
|----------x---2-|---------------|-----------------|---------------------|
|----------------|---------------|-----------------|---------------------|


  +H.      E E   Q  E Q.   E E   +Q   E Q.   E E   +Q   T S. Q.   E E
|--------------|---------------|-----------------|---------------------|
|--------------|---------------|-----------------|---------------------|
|-(4)------x-x-|-7--6-9----7-6-|-(6)--2-4----2-0-|-(0)--3s4--2----4----|
|-(4)------x-x-|-7--7-9----7-7-|-(7)--2-4----2-0-|-(0)--3s4--2----4----|
|----------x-x-|---------------|-----------------|---------------------|
|----------x-x-|---------------|-----------------|------------------0--|


           \3.5/
  +H.      Q        +W           E E Q.   Q  S S
|-----------------|------------|-----------------|
|-----------------|------------|-----------------|
|-----------------|------------|-----------------|
|-----------------|------------|-----9\------x-x-|
|----------7------|-(7)--------|---9-9\------x-x-|
|-(0)-------------|------------|-7---7\----------|


  E E Q  Q.   S S   E E Q   H
|-----------------|--------------|
|-----------------|--------------|
|-----7-----------|--------------|
|---7-7-------x-x-|-----7\-------|
|-5-5-5-------x-x-|---7-7\-------|
|-----------------|-5-5-5\-------|


            PM|
  E E E E E S S E E   E E Q.   Q  S S   E E Q  H      E E Q.   Q.
|-------------------|-----------------|-------------|---------------|
|-------------------|-----------------|-------------|---------------|
|-------------------|-----------------|-----7-------|---------------|
|-----5---------7---|-----9\------x-x-|---7-7-------|-----7\--------|
|---5---------------|---9-9\------x-x-|-5-5-5-------|---7-7\--------|
|-3-------5-5-5-----|-7---7\----------|-------------|-5-------------|


  W          E E Q   H      E E Q.   Q.     E E Q.   Q.
|-0--------|--------------|---------------|---------------|
|-0--------|--------------|---------------|---------------|
|-x--------|--------------|-----7\--------|---------------|
|-2--------|-----9\-------|---7-7\--------|-----7\--------|
|-2--------|---9-9\-------|-5-------------|---7-7\--------|
|-0--------|-7---7\-------|---------------|-5-------------|


            PM|
  E E E E E S S Q    E E Q.   Q.     E E Q.   Q.     E E H.
|------------------|---------------|---------------|-----------|
|------------------|---------------|---------------|-----------|
|------------------|---------------|-----7\--------|-----------|
|-----5---------7--|-----9\--------|---7-7\--------|-----7-----|
|---5--------------|---9-9\--------|-5-------------|---7-7-----|
|-3-------5-5-5----|-7-------------|---------------|-5---------|


  T S. +Q.   Q  Q     Q  T S. +E  E Q.     T S. +E  Q  +Q.   E
|-------------------|--------------------|---------------------|
|-------------------|--------------------|---------------------|
|-------------------|-------------0------|---------------------|
|-------------------|-------------0------|-2s4--(4)-2--(2)---2-|
|-------------------|----1s2--(2)---2----|---------------------|
|-5s7--(7)---9--9\--|-3------------------|---------------------|


                            |-3-|
  Q.   Q.   Q    Q  S S S S S S S E Q
|--------------|-----------------------|
|--------------|-----------------------|
|--------------|----2h4p2h4p2h4p2---2--|
|--------------|-----------------------|
|-5----7----9--|-0----------------0----|
|--------------|-----------------------|


  Q  T S. +E  E Q.     T S. +E  Q  +Q.   E
|--------------------|---------------------|
|--------------------|---------------------|
|-------------0------|---------------------|
|-------------0------|-2s4--(4)-2--(2)---2-|
|----1s2--(2)---2----|---------------------|
|-3------------------|---------------------|


                                \3.5/
  Q.   Q.   Q    W          S S E     +H.
|--------------|----------|------------------|
|--------------|----------|------------------|
|--------------|----------|------------------|
|-4----5----4--|----------|------------------|
|--------------|-7--------|------------------|
|--------------|----------|---x-0-----(0)----|


  Q  E Q.   E E   +Q   E Q.   E E   +Q   T S. Q.   E E
|---------------|-----------------|---------------------|
|---------------|-----------------|---------------------|
|-7--6-9----7-6-|-(6)--2-4----2-0-|-(0)--3s4--2----2-4--|
|-7--7-9----7-7-|-(7)--2-4----2-0-|-(0)--3s4--2----2-4--|
|---------------|-----------------|---------------------|
|---------------|-----------------|---------------------|


  +H     +E  E E E   Q  E Q.   E E   +Q   E Q.   E E   +Q   T S. Q.   E E
|------------------|---------------|-----------------|---------------------|
|------------------|---------------|-----------------|---------------------|
|-(4)----(4)-4-x---|-7--6-9----7-6-|-(6)--2-4----2-0-|-(0)--3s4--2----2-4--|
|-(4)----(4)-4-x---|-7--7-9----7-7-|-(7)--2-4----2-0-|-(0)--3s4--2----2-4--|
|----------------2-|---------------|-----------------|---------------------|
|------------------|---------------|-----------------|---------------------|


   H     E E E E   Q  E Q.   E E   +Q   E Q.   E E   +Q   T S. Q.   E E
|----------------|---------------|-----------------|---------------------|
|----------------|---------------|-----------------|---------------------|
|-(4)------------|-7--6-9----7-6-|-(6)--2-4----2-0-|-(0)--3s4--2----2-4--|
|--4-------------|-7--7-9----7-7-|-(7)--2-4----2-0-|-(0)--3s4--2----2-4--|
|----------x---2-|---------------|-----------------|---------------------|
|----------------|---------------|-----------------|---------------------|


  +H.      E E   Q  E Q.   E E   +Q   E Q.   E E   +Q   T S. Q.   E E
|--------------|---------------|-----------------|---------------------|
|--------------|---------------|-----------------|---------------------|
|-(4)------x-x-|-7--6-9----7-6-|-(6)--2-4----2-0-|-(0)--3s4--2----4----|
|-(4)------x-x-|-7--7-9----7-7-|-(7)--2-4----2-0-|-(0)--3s4--2----4----|
|----------x-x-|---------------|-----------------|---------------------|
|----------x-x-|---------------|-----------------|------------------0--|


                         |-3--|
  +E  E Q. E E E   Q    +E  E E S. S. X X X X S S S S
|------------0---|------------------------------------|
|----------0---3-|----------2-------------------------|
|----------------|-4pb6r(4)---5-4--3--2h3p2---2-5p4p2-|
|----------------|--------------------------0---------|
|-----7----------|------------------------------------|
|-(0)---7--------|------------------------------------|


  |--3--|           |-3--| |-3-|
  S +S  S S S +Q   +S  S S S S S +S  S S S
|------------------------------------------|
|------------------------------------------|
|-4-(4)-----1-(1)--(1)p0---4p2p0-(0)-2-4p0-|
|-------4-2--------------------------------|
|------------------------------------------|
|------------------------2-----------------|


                      |-3-|   |-3-|      |--3---|  |-3--|
  +S  T T S S T T S S T T T S T T T S S +S  +S  S +S  S S
|---------------------------------------------------------|
|---------------------------------------------------------|
|-(0)-4p2p0-2-4p2p0-4-4p2p0-4p2p0---2-------------------0-|
|---------------------------------4---4-(4)-(4)-2-(2)-0---|
|---------------------------------------------------------|
|---------------------------------------------------------|


         |-3-|
  Q.     S S S E    +E     +Q
|-------------------------------|
|--------------2pb3r(2)pb3r(2)--|
|-------------------------------|
|-------------------------------|
|-2pb4r==2s3s4------------------|
|-------------------------------|


                                     |-3-|       |-3-|         |-3-|
  T T T T S S T T T T T S. S S S S E S S S   S S S S S T T T T S S S S S Q.
|----------------------------------------0-|-1-0-------------------------------|
|-2h3p2p0-2--------------------------------|-----3p2p0-2-3p2p0-----------------|
|-----------4-2s1-------2--4-2-2-4s6-4-6---|-------------------2p1---1-2-------|
|-----------------4p2p0--------------------|-----------------------4-----4-----|
|------------------------------------------|-----------------------------------|
|------------------------------------------|-----------------------------------|


  |---5---|                        |-3-|
  S S S S S S S S. T S S S S S T T S S S
|-----------------------------------------|
|-------2-----3-2----------x--------------|
|-----x-----x--------7-7p6-x-9-9p7---7-9\-|
|---x-----x--------x----------------------|
|-0--------------------------------x------|
|-----------------------------------------|


   |--3--|          |--3--|  |--3---|
  +E   E E  Q      +E  E  E  E  E  +E
|----------------------9-------12-(12)--|
|----------12b14r=(12)---12-10----------|
|-(9)-11-9------------------------------|
|---------------------------------------|
|---------------------------------------|
|---------------------------------------|


                                                    |-3--| |--3--|
   +Q    S S  E E  E  E     S  S   S  E.     H     +S  S S S  S  S
|-(12)--12-x-12-9----------------|----------12----(12)-------------|
|-----------------12-12b14r10-12-|---12b14==14----(14)-----x-14-17-|
|--------------------------------|-----------------------x---------|
|--------------------------------|---------------------x-----------|
|--------------------------------|---------------------------------|
|--------------------------------|---------------------------------|


   |--3--|           |--3--|  |-3--| |-3-|  |--3--|
   S  S  S  T T T T  S  S  S  S  S S S S S  S  S  S  S  S  E
|-14----------------19-17p14-------------x-19-17p14---------------|
|-----------------x--------------------x------------17-14-17pb19--|
|----18s17-16---x------------17p16---x----------------------------|
|-------------x--------------------x------------------------------|
|-----------------------------------------------------------------|
|-----------------------------------------------------------------|


         |---3----|
   +Q    E     E  E  S  S  Q.
|---------------------------------|
|-(17)--17b19-17-16-15-14---------|
|-------------------------18b21r==|
|---------------------------------|
|---------------------------------|
|---------------------------------|


                                                                    ~~~~
    |---3----|            |-----3-----|  |---3----|            |----3----|
   +E   +E   E  E  E     +E      +E   E  E     E  E    Q      +E   +E   +E   Q   Q
|---------------------------------------------------|--------------------------------|
|-----------14-17--------------------14-------------|--------------------------------|
|-(18)-(18)-------16b18r(16)b18-(16)----14b15----16-|-14b17r=(14)-(14)-(14)-14--14\--|
|---------------------------------------------16----|--------------------------------|
|---------------------------------------------------|--------------------------------|
|---------------------------------------------------|--------------------------------|


    |-3-|     |-3-|                  |-3-|
  E S S S S S S S S E E E E     +Q   E E E Q    +S  S E   Q  H    +E. S
|-------2-4h5p4p2---2---------|-------------------------|---------------|
|-----3---------------5-3-5b7-|-(5)--5-3s2--------------|---------------|
|-0-x-------------5-----------|------------4b6r=(4)-2---|---------------|
|-----------------------------|-----------------------4-|----4----(4)-x-|
|-----------------------------|-------------------------|---------------|
|-----------------------------|-------------------------|-2-------------|


                                                    |-3--|
  E E E S S +H       +E  E E E S S S T T S S S S   +E  E E S S E Q  S S S  S
|------------------|-----------------------------|--------------------9---12--|
|------------------|-----------------------------|----------------------------|
|------------------|-------------------------1-2-|-(2)-4-6-4h6p4-6------------|
|-------2s4-(4)----|-(4)-----2-4p2-4-5p4p2-4-----|----------------------------|
|-4-5-4------------|-----4-5---------------------|----------------------------|
|------------------|-----------------------------|----------------------------|


                                               |-3-|
   Q.      Q      E  S  S  E    E  E  +H     E S S S
|-12b14r=====================|=======================|
|---------12b14r=10-12p10----|-10------------------x-|
|-------------------------11-|----11-(11)--------x---|
|----------------------------|-----------------x-----|
|----------------------------|-----------------------|
|----------------------------|-----------------------|


   E S  S S E. S S S S S S E
|-16-7h16-x-4--4h5p4-2---2-5b7r=|
|-------------------------------|
|----------------------0--------|
|-------------------------------|
|-------------------------------|
|-------------------------------|


                                                                      2/4
                                                                 \3/
                               |-3-|           |-3-|
  +Q   S S S S S S T T S S T T S S S   T T T T S S S S E. Q.   T S.    +H
|-(5)--2p0---------------------------|-------------------------------|-----|
|----------3-2p0-2-3p2p0-------------|-------------------------------|-----|
|--------------------------2p0-------|-------------------------------|-----|
|------------------------4-----4p2p0-|---2-4p0---------2-------------|-----|
|------------------------------------|-4-------4p2p0-----------------|-----|
|------------------------------------|---------------4----0----2s0---|-(0)-|


 4/4
  E E Q   H      E E Q.   Q.     E E E E E S S Q
|--------------|---------------|------------------|
|--------------|---------------|------------------|
|--------------|-----7\--------|------------------|
|-----9\-------|---7-7\--------|-----5---------7--|
|---9-9\-------|-5-------------|---5--------------|
|-7---7\-------|---------------|-3-------5-5-5----|


  E E Q.   Q.     E E Q.   Q.     E E H.        T S. +Q.   H
|---------------|---------------|-------------|-----------------|
|---------------|---------------|-------------|-----------------|
|---------------|-----7\--------|-------------|-----------------|
|-----9\--------|---7-7\--------|-----7-------|-----------------|
|---9-9\--------|-5-------------|---7-7-------|-----------------|
|-7-------------|---------------|-5-----------|-5s7--(7)---5----|


                                                       |-3-|
  Q   H.        H.      Q    Q.   Q.   Q    Q  S S S S S S S E Q
|-----3-------|------------|--------------|-----------------------|
|-----3-------|------------|--------------|-----------------------|
|-------------|------------|--------------|----2h4p2h4p2h4p2---2--|
|-------------|------------|--------------|-----------------------|
|-------------|---------7--|-5----7----9--|-0----------------0----|
|-3--(3)------|-0----------|--------------|-----------------------|


  E E E E +H       W          Q.   Q.   Q    W          +W
|----------------|----------|--------------|----------|--------|
|----------------|----------|--------------|----------|--------|
|-------0-(0)----|----------|--------------|----------|--------|
|-----0----------|----------|--------------|-7--------|-(7)----|
|---2------------|----------|-5----7----9--|-0--------|-(0)----|
|-3--------------|-0--------|--------------|----------|--------|


  |-3-| |-3-| |-3-| |-3-|
  E E E E E E E E E E E E   W
|-------------------------|------|
|---5-4-3-2-----5-4-3-2---|------|
|-----------4-----------4-|------|
|-------------------------|-7----|
|-------------------------|-0----|
|-------------------------|------|


  Q  E Q.   E E   +Q   E Q.   E E   +Q   T S. Q.   E E
|---------------|-----------------|---------------------|
|---------------|-----------------|---------------------|
|-7--6-9----7-6-|-(6)--2-4----2-0-|-(0)--3s4--2----2-4--|
|-7--7-9----7-7-|-(7)--2-4----2-0-|-(0)--3s4--2----2-4--|
|---------------|-----------------|---------------------|
|---------------|-----------------|---------------------|


  +H.      E E   Q  E Q.   E E   +Q   E Q.   E E   +Q   T S. Q.   E E
|--------------|---------------|-----------------|---------------------|
|--------------|---------------|-----------------|---------------------|
|-(4)------x-x-|-7--6-9----7-6-|-(6)--2-4----2-0-|-(0)--3s4--2----2-4--|
|-(4)------x-x-|-7--7-9----7-7-|-(7)--2-4----2-0-|-(0)--3s4--2----2-4--|
|----------x-x-|---------------|-----------------|---------------------|
|----------x-x-|---------------|-----------------|---------------------|


  +H.      E E   T S. +E  E Q.   E E
|--------------|----------------------|
|--------------|----------------------|
|-(4)------x-x-|-6s7--(7)-6s9----7-6\-|
|-(4)------x-x-|-6s7--(7)-6s9----7-6\-|
|----------x-x-|----------------------|
|----------x-x-|----------------------|


  +Q   E E +Q   E E   +Q   T S. Q.   E E
|-------------------|---------------------|
|-------------------|---------------------|
|-(6)--2s4-(4)--2-0-|-(0)--2s4--2----2-4\-|
|-(6)--2s4-(4)--2-0-|-(0)--2s4--2----2-4\-|
|-------------------|---------------------|
|-------------------|---------------------|


  +H.      E T S.   +Q   E Q.   E E    +Q   E E +Q   E E   +Q   T S. Q.   E E
|-----------------|------------------|-------------------|---------------------|
|-----------------|------------------|-------------------|---------------------|
|-(4)--------6s7--|-(7)--6s9----7-6\-|-(6)--2s4-(4)--2-0-|-(0)--2s4--2----2-4\-|
|-(4)--------6s7--|-(7)--6s9----7-6\-|-(6)--2s4-(4)--2-0-|-(0)--2s4--2----2-4\-|
|-----------------|------------------|-------------------|---------------------|
|-----------------|------------------|-------------------|---------------------|


                                                                 |-3-|
  +H.      E E   Q  E Q.    E S S   Q  E Q.   E E   Q  T S. Q.   S S S E
|--------------|------------------|---------------|----------------------|
|--------------|-3--2-3b5---3-2h3p|=2-------------|----------------------|
|-(4)----------|------------------|----2-4------2-|-0--2s4--2----0-2-0---|
|-(4)----------|------------------|---------------|--------------------4-|
|------------2-|------------------|---------------|----------------------|
|--------------|------------------|---------------|----------------------|


                                                    |-3-|
  +H     S S S S Q    +Q   E E +Q   E E   +E. S S S S S S Q  E E
|-------------------|-------------------|-------------------------|
|-------------------|-------------------|-------------------------|
|--------------0-4--|-(4)--4-5-(5)--5-7-|-(7)-5p0---0h5h7s9--7-9--|
|-(4)----4---2------|-------------------|-------------------------|
|-------------------|-------------------|-------------------------|
|-------------------|-------------------|-------------------------|


                |-3-|
  Q  E E Q    E S S S   H.      E  E        +Q   E E E S S E  E
|---------------------|------------------|---------------------------|
|---------------------|-----------10-----|-(10)--------------10------|
|-7--6-7-7b9r=7-6h7p6-|------------9pb11r|==(9)--7-----x-x----9pb11r=|
|---------------------|-9----------------|---------9---x-x-----------|
|---------------------|------------------|---------------------------|
|---------------------|------------------|---------------------------|


   +E.     S    E E E E E  E    E  E E S  S  Q   T T S E   +E  E E Q.   E E
|-----------------------7-10-|-12s10-7-7-(7)(7)----------|------------------|
|-(10)----10------------7-10-|-12s10-7-----------7-------|------------------|
|--(9)b11--9b11r7-----x------|---------9s10s=9-----7-6s4-|-(4)-0-7-4----7---|
|-----------------9---x------|-----------------------6s4-|-(4)-0-7-4----7---|
|----------------------------|---------------------------|----------------7-|
|----------------------------|---------------------------|------------------|


                                  |-3-| |-3-|
  E E T  S. Q.   E  E    E  E E E S S S S S S +S  S  E
|-7--------------7s10s|=12s10-7-7-3p2p0-----------x-10b12-|
|-7--------------7s10s|=12s10-7-7-------3p2p0-(0)---------|
|-----9s11--9---------|-----------------------------------|
|-----9s11--9---------|-----------------------------------|
|---------------------|-----------------------------------|
|---------------------|-----------------------------------|


   +E   E S S  S S  S S  S S S  S S  S
|-(10)-10-9p7----7-----------7-------------|
|-------------10---10p7----7---10---12b15--|
|-----------------------10-----------------|
|------------------------------------------|
|------------------------------------------|
|------------------------------------------|


                                                                     |--3--|
   +H     E  E  E  E    +Q    E  E  Q   E S  S   E S S S E S +Q   E  S  S  S
|--------------------|-------------------------|--------------------------14--|
|-(12)------12-10-12-|-(12)--10-12-12--10------|-------7---------------14-----|
|--------------------|--------------------9s10s|=9p7-----7----------16--------|
|--------------------|-------------------------|-----9-----9-(9)--------------|
|--------------------|-------------------------|------------------------------|
|--------------------|-------------------------|------------------------------|


   E  E  E  Q.       E      E    E  Q.       +Q   Q    Q  S S Q.   E S S
|-15-14-17-17pb19r============|======================|===================|
|-------------------17pb19r15-|-17-17b19====(17)-----|-3------5----------|
|-----------------------------|----------------------|------x----------x-|
|-----------------------------|----------------------|----x----------x---|
|-----------------------------|----------------------|-------------------|
|-----------------------------|----------------------|-------------------|


  Q  S S Q.   S S  E       +E. S S s  Q      +S   S E  E
|-----------------------|-----------------------------------|
|-7------8--------10b12r|=(10)-8-----12b14r=(12)-10---17b20-|
|------x--------x-------|----------x----------------x-------|
|----x--------x---------|-----------------------------------|
|-----------------------|-----------------------------------|
|-----------------------|-----------------------------------|


               |---3---|   |--3---|
   +Q    E  E  E  +E   E  +E   E  E
|-------14-15-16-(16)-17-(17)-17-------|
|-(17)---------------------------17b19-|
|--------------------------------------|
|--------------------------------------|
|--------------------------------------|
|--------------------------------------|


                        |---3----|      |--3---|
   +E   S  S  E  E     +E   +E   E     +E   E  E
|------17-14-17-17b19-(17)-(17)-17b19-(17)-17-14-|
|-(17)-------------------------------------------|
|------------------------------------------------|
|------------------------------------------------|
|------------------------------------------------|
|------------------------------------------------|


   |---3---|      |--3---|                     |--3--|           |--3--|
   E  +E   E     +E   E  E  Q.      E    +Q    E  E  E     +Q    E  E  E
|-17-(17)-17b19-(17)-17-14------------|----------------------------------|
|--------------------------15b17r=====|=======14-15-17b19r(17)--17-15-14-|
|----------------------------------16-|-(16)-----------------------------|
|-------------------------------------|----------------------------------|
|-------------------------------------|----------------------------------|
|-------------------------------------|----------------------------------|


   |--3--|
   E  E  E  +Q    +Q.   X X T S
|---------------------------7-9\-|
|-15p14-------------------x------|
|-------16-(16)--(16)---x--------|
|--------------------------------|
|--------------------------------|
|--------------------------------|


        |-3--|   |-3-|           |---5---|               |-3-|
   S E. E  E E E S S S S S S S   S S S S S +S  E.  +Q.   S S S
|-10s9--7----7-3-2h3p2p0-2p0---|--------------------------------|
|---------10-----------------3-|-2h3p2---2-(2)---------------x--|
|------------------------------|-------4-------2b4-(2)-----x----|
|------------------------------|-------------------------x------|
|------------------------------|--------------------------------|
|------------------------------|--------------------------------|


          |-3-|                  |-3-|
  E S S E S S S S E. Q      E. S E E E S S S S   +Q
|-5-3h5p3-------3s2-------|---------------------------|
|-------------x------5b7r=|=5--3-5-2-3---2-5----------|
|-----------x-------------|------------4-----4b8r(4)--|
|---------x---------------|---------------------------|
|-------------------------|---------------------------|
|-------------------------|---------------------------|


                   |---3---|
  +E  +E    E T S. S   +S  S   +E  T S. E
|------------------------------------------|
|-----------5------------------------------|
|-(4)-(4)b8---4h6--2b4r(2)-2b4r(2)------2--|
|----------------------------------2s4-----|
|------------------------------------------|
|------------------------------------------|


             |-3--|      |-3--|      |-3--|
  E S S S S +S  S S S S +S  S S S S +S  S S
|-------------------------------------------|
|-------------------------------------------|
|-4p2p0-2-4-(4)p2p0-2-4-(4)p2p0-2-4-(4)p2p0-|
|-------------------------------------------|
|-------------------------------------------|
|-------------------------------------------|


       |-3--|
  S S +S  S S S S T T T T S S T T T T S S T T T T
|---------------------------------------------------|
|---------------------------------------------------|
|-2-4-(4)p2p0-2-4-4p2p0---2-4-4p2p0---2-4-4p2p0-----|
|-----------------------4-----------4-----------4---|
|---------------------------------------------------|
|---------------------------------------------------|


                                                              \5/
              |-3-|           |-3-|       |-3-| |-3-|
  S S T T T T S S S S S E.  S S S S +E    S S S S S S S S S S Q.    E
|---------------------------------------|-----------------------------|
|---------------------------------------|-----------------------------|
|-2-4p2p0---0---------0-----------------|-----------------------------|
|---------4---4p2p0-2---2b4p0-4p2p0-(0)-|-4p2p0---------------------4-|
|---------------------------------------|-------4-4px-2h4-4p0-2-------|
|---------------------------------------|-----------------------------|


  |---5---| |-3-| |-3-|         |-----7-----|
  S S S S S S S S S S S S E T T S S S S S S S
|---------------------------------------------|
|-------------------------------2h3p2p0-----2-|
|-----------------------2-4-2h4---------2-4---|
|-2p0-4p2p0-5p4p2-4p2p0-----------------------|
|---------------------------------------------|
|---------------------------------------------|


     |---5---| |-3-| |-3-| |-3-|               |-3--|
  Q  S S S S S S S S S S S S S S +E    H       E  E E  Q
|------------------------------9-(9)-|-9b10r===7----7---------*|
|-3--2h3p2p0-2-3-2-0-2-3-2-0-2-------|-----------10---10b12r==*|
|------------------------------------|------------------------*|
|------------------------------------|------------------------*|
|------------------------------------|------------------------*|
|------------------------------------|------------------------*|


Duration Legend
---------------
W - whole; H - half; Q - quarter; E - 8th; S - 16th; T - 32nd; X - 64th; a - acciaccatura
+ - note tied to previous; . - note dotted; .. - note double dotted
Uncapitalized letters represent notes that are staccato (1/2 duration)
Irregular groupings are notated above the duration line
Duration letters will always appear directly above the note/fret number it represents the
duration for.  Duration letters with no fret number below them represent rests.  Multi-
bar rests are notated in the form Wxn, where n is the number of bars to rest for.  Low
melody durations appear below the staff

Tablature Legend
----------------
 h   - hammer-on
 p   - pull-off
 b   - bend
 pb  - pre-bend
 r   - bend release (if no number after the r, then release immediately)
 /\  - slide into or out of (from/to "nowhere")
 s   - legato slide
 S   - shift slide
  - natural harmonic
[n]  - artificial harmonic
n(n) - tapped harmonic
 ~   - vibrato
 tr  - trill
 T   - tap
 TP  - trem. picking
 PM  - palm muting
\n/  - tremolo bar dip; n = amount to dip
 \n  - tremolo bar down
 n/  - tremolo bar up
/n\  - tremolo bar inverted dip
 =   - hold bend; also acts as connecting device for hammers/pulls
 <>  - volume swell (louder/softer)
 x   - on rhythm slash represents muted slash
 o   - on rhythm slash represents single note slash

Misc Legend
-----------
 |  - bar
||  - double bar
||o - repeat start
o|| - repeat end
*|  - double bar (ending)
 :  - bar (freetime)
 $  - Segno
 &  - Coda
Tempo markers -  = BPM(8/16=s8/s16), where s8 = swing 8ths, s16 = swing 16ths


***************************************************************************************
* Generated using Power Tab Editor by Brad Larsen - http://powertab.guitarnetwork.org *
***************************************************************************************
  development and support by
dmitry ivanov