rock
 
|tablatures   |lyrics   |discussion forums   |more tabs @ XGuitar.com

Deep Purple tabs

King Of Dreams bass tab

King Of Dreams (bassline) as recorded by Deep Purple

 Intro
  Em                      D
 4/4
  Gtr I
|----------|------------|----------|--------|
|----------|------------|----------|--------|
|----------|------------|----------|--------|
|-2--------|-(2)--------|-4--------|-(4)----|
|----------|------------|-5--------|-(5)----|
|----------|------------|----------|--------|


  C                       Em
|----------|------------|----------|--------|
|----------|------------|----------|--------|
|----------|------------|-0--------|-(0)----|
|-5--------|-(5)--------|-2--------|-(2)----|
|-3--------|-(3)--------|-2--------|-(2)----|
|----------|------------|-0--------|-(0)----|


 Intro
  Gtr II
|-----------------|-----------------|-----------------|-----------------|
|-----------------|-----------------|-----------------|-----------------|
|-----------------|-----------------|-----------------|-----------------|
|-0-0-0-0-0-0-0-0-|-0-0-0-0-0-0-0-0-|-0-0-0-0-0-0-0-0-|-0-0-0-0-0-0-0-0-|


  Gtr II
|-----------------|-----------------|-----------------|-----------------|
|-----------------|-----------------|-----------------|-----------------|
|-----------------|-----------------|-----------------|-----------------|
|-0-0-0-0-0-0-0-0-|-0-0-0-0-0-0-0-0-|-0-0-0-2-3-0-2-3-|-5-5-5-5-5-5-5-5-|


   Verse
||------------------|-----------------|-----------------|------------------|
||o-----------------|-----------------|-----------------|------------------|
||o-----------------|-----------------|-----------------|------------------|
||--0-0-0-0-0-0-0-0-|-0-0-0-0-0-0-0-0-|-0-0-0-0-0-0-0-0-|-0-0-0-0-0-0-0-0--|


|-----------------|-----------------|-----------------|-----------------|
|-----------------|-----------------|-----------------|-----------------|
|-----------------|-----------------|-----------------|-----------------|
|-0-0-0-0-0-0-0-0-|-0-0-0-0-0-0-0-0-|-0-0-0-2-3-0-2-3-|-5-5-5-5-5-5-5-5-|


|-----------------|-----------------|-----------------|-----------------|
|-----------------|-----------------|-----------------|-----------------|
|-----------------|-----------------|-----------------|-----------------|
|-0-0-0-0-0-0-0-0-|-0-0-0-0-0-0-0-0-|-0-0-0-0-0-0-0-0-|-0-0-0-0-0-0-0-0-|


|-----------------|-----------------|-----------------|-----------------|
|-----------------|-----------------|-----------------|-----------------|
|-----------------|-----------------|-----------------|-----------------|
|-0-0-0-0-0-0-0-0-|-0-0-0-0-0-0-0-0-|-0-0-0-2-3-0-2-3-|-5-5-5-5-5-5-5-5-|


                                                            Chorus
|-----------------|-------------------|-------12-17-14----||-----------------|
|-----------------|-------------------|-12-14-------------||-----------------|
|-----------------|-12---15-15-14--15-|-------------------||---------3-3-3-3-|
|-5-5-5-5-5-5-5-5-|-------------------|-------------------||-0-0-0-0---------|


|-----------------|-----------------|-----------------|-----------------|
|-----------------|-----------------|-----------------|-----------------|
|---------5-5-5-5-|---------3-3-3-3-|---------5-5-5-5-|---------3-3-3-3-|
|-5-5-5-5---------|-0-0-0-0---------|-5-5-5-5---------|-0-0-0-0---------|


|-----------------|-----------------|
|-----------------|-----------------|
|---------5-5-5-5-|---------3-3-3-3-|
|-5-5-5-5---------|-0-0-0-0---------|


 1.
|-----------------|-----------------|-----------------|
|-----------------|-----------------|-----------------|
|---------5-5-5-5-|-----------------|-----------------|
|-5-5-5-5---------|-0-0-0-0-0-0-0-0-|-0-0-0-0-0-0-0-0-|


|-----------------|-----------------|-----------------|------------------||
|-----------------|-----------------|-----------------|-----------------o||
|-5-5-5-5-5-5-5-5-|-5-5-5-5-5-5-5-5-|-3-3-3-3-3-3-3-3-|-3-3-3-3-3-3-3-3-o||
|-----------------|-----------------|-----------------|------------------||


  2.
|-----------------|-----------------|-----------------|
|-----------------|-----------------|-----------------|
|---------5-5-5-5-|-----------------|-----------------|
|-5-5-5-5---------|-0-0-0-0-0-0-0-0-|-0-0-0-0-0-0-0-0-|


|-----------------|-----------------|-----------------|------------------------|
|-----------------|-----------------|-----------------|----/10--10-10-10-10-10-|
|-5-5-5-5-5-5-5-5-|-5-5-5-5-5-5-5-5-|-3-3-3-3-3-3-3-3-|-3/---------------------|
|-----------------|-----------------|-----------------|------------------------|


   Interlude
                                                                            5x
||------------------|-----------------|-----------------|-------------------||
||o-----------------|-----------------|-----------------|------------------o||
||o-----------------|-----------------|-----------------|------------------o||
||--0-0-0-0-0-0-0-0-|-0-0-0-0-0-0-0-0-|-0-0-0-0-0-0-0-0-|-0-0-0-0-0-0-0-0---||


                                      Bridge
|-----------------|-----------------||-----------------|-----------------|
|-----------------|-----------------||-----------------|-0-2-------------|
|-----------------|-----------------||---------------2-|-----------------|
|-0-0-0-0-0-0-0-0-|-0-0-0-0-0-0-0-0-||-3-0-0-0-0-0-0---|-----0-0-0-0-0-0-|


|-----------------|-----------------|-----------------|-----------------|
|-----------------|-0-2-------------|-----------------|-0-2-------------|
|---------------2-|-----------------|---------------2-|-----------------|
|-3-0-0-0-0-0-0---|-----0-0-0-0-0-0-|-3-0-0-0-0-0-0---|-----0-0-0-0-0-0-|


|-----------------|-----------------|-----------------|-----------------|
|-----------------|-----------------|-----------------|-0-2-------------|
|-----------------|-----------------|---------------2-|-----------------|
|-0-0-0-2-3-0-2-3-|-5-5-5-5-5-5-5-5-|-3-0-0-0-0-0-0---|-----0-0-0-0-0-0-|


|-----------------|-----------------|-----------------|-----------------|
|-----------------|-0-2-------------|-----------------|-0-2-------------|
|---------------2-|-----------------|---------------2-|-----------------|
|-3-0-0-0-0-0-0---|-----0-0-0-0-0-0-|-3-0-0-0-0-0-0---|-----0-0-0-0-0-0-|


|-----------------|-----------------|-----------------|
|-----------------|-----------------|-----------------|
|-----------------|-----------------|-----------------|
|-0-0-0-2-3-0-2-3-|-5-5-5-5-5-5-5-5-|-5-5-5-5-5-5-5-5-|


|---------------------|-12-14-17-14-12---------------|
|--------------12--14-|----------------14-12-10------|
|-12-14-15-14---------|-------------------------12---|
|---------------------|------------------------------|


   Chorus
||------------------|-----------------|-----------------|------------------|
||o-----------------|-----------------|-----------------|------------------|
||o---------3-3-3-3-|---------5-5-5-5-|---------3-3-3-3-|---------5-5-5-5--|
||--0-0-0-0---------|-5-5-5-5---------|-0-0-0-0---------|-5-5-5-5----------|


|-----------------|-----------------|-----------------|-----------------|
|-----------------|-----------------|-----------------|-----------------|
|---------3-3-3-3-|---------5-5-5-5-|---------3-3-3-3-|---------5-5-5-5-|
|-0-0-0-0---------|-5-5-5-5---------|-0-0-0-0---------|-5-5-5-5---------|


  1.
|-----------------|------------------||
|-----------------|-----------------o||
|-----------------|-----------------o||
|-0-0-0-0-0-0-0-0-|-0-0-0-0-0-0-0-0--||


 Outro
 2.
|-----------------|-----------------|-----------------|
|-----------------|-----------------|-----------------|
|-----------------|-----------------|-5-5-5-5-5-5-5-5-|
|-0-0-0-0-0-0-0-0-|-0-0-0-0-0-0-0-0-|-----------------|


|-----------------|-----------------|-----------------|----------|------*|
|-----------------|-----------------|-----------------|----------|------*|
|-5-5-5-5-5-5-5-5-|-3-3-3-3-3-3-3-3-|-3-3-3-3-3-3-3-3-|----------|------*|
|-----------------|-----------------|-----------------|-0--------|-0----*|
  development and support by
dmitry ivanov