rock
 
|tablatures   |lyrics   |discussion forums   |more tabs @ XGuitar.com

Deep Purple tabs

Deep Purple bass tab

From: ed 
Artist:	Deep Purple
Album:	Deepest Purple
Song:	Black Night


Riff #1
-------|----------------------------|------------------|------------------|
-------|----5-----------5---7-5-----|------------------|-5----------------|
-------|--7---7-5---5-7---7-----7---|-5-7--------------|---7--------------|
-------|----------7-----------------|------------------|------------------|

This riff is repeated twice before every verse

Riff #2
-------|----------------------------|-
-------|----------------------------|-
-------|---5-7-7-7-7-7-7-7----------|-
-------|----------------------------|-

The first three lines of the verse are sung over this riff

Riff #3
         Maybe I'll find on the way down the line
-------|--------------------------------------------------------|
-------|------------------------4-------------------------------|
-------|--7--5-------5------5--------7---5----7-----------------|
-------|--------7--------7--------------------------------------|


         that I'm free, free to be me.                                X2
-------|------------------------------|---|--------------------------|---|
-------|------------------------------|-*-|--------------------------|-*-|
-------|-5----------------------------|-*-|-5-7-7-7-7-7-7-7----------|-*-|
-------|-------7---5--3---------------|---|--------------------------|---|


        Black night is a long way from home.
-------|------------------------------------------|
-------|------------------------------------------|
-------|------------------------------------------|
-------|--5-5-5-5-5-5-5---3-3-3-3-3-----7--7--7---|
  development and support by
dmitry ivanov