rock
 
|tablatures   |lyrics   |discussion forums   |more tabs @ XGuitar.com

Deep Purple tabs

Contact Lost guitar tab

Tabbed by:Bryan
Email:Thewolfpacisback@aol.com

Tuning:Standard

e|---------------------------------------------------------------------------|
B|----10---10---12~~~---10---12(1/2 bend)--12---9--12(full bend)-------------|
G|-9-------------------------------------------------------------------------|
D|---------------------------------------------------------------------------|
A|---------------------------------------------------------------------------|
E|---------------------------------------------------------------------------|

e|---------------------------------------------------------------------------|
B|----10---12(1/2)--10---12~~~-----------------------------------10--10------|
G|-9---------------------------12---9---12----12--9-10-12-9--12--------12-10-|
D|---------------------------------------------------------------------------|
A|---------------------------------------------------------------------------|
E|---------------------------------------------------------------------------|

e|---------------------------------7--8--10(1/2)10-8-7-8-10-10-12-9-10-12----|
B|----10(1/2)---8---10--8---10--13-------------------------------------------|
G|---------------------------------------------------------------------------|
D|---------------------------------------------------------------------------|
A|---------------------------------------------------------------------------|
E|---------------------------------------------------------------------------|

e|-12-13--15--12---17--17--19-20----20--19--15--17--13-15-13-12--8-7---------|
B|--------------13---------------17-------15--12--13-------------------------|
G|-------------------------------------------------------------12----7-------|
D|---------------------------------------------------------------------------|
A|---------------------------------------------------------------------------|
E|---------------------------------------------------------------------------|

e|3-5-3-1------------2--17-19-19-17-19-15-17-13-15-13-12-8-7-----------------|
B|--------3-3-1------3---------------------------------------8-6-------------|
G|-------2-2---2-4-0-2-------------------------------------------7-5---------|
D|-------------------0----------------------------------------------7-7-9-5--|
A|---------------------------------------------------------------------------|
E|---------------------------------------------------------------------------|

e|---------------------------------------------------------------------------|
B|---------------------------------------------------------------------------|
G|5-7------------------------------------------------------------------------|
D|---------------------------------------------------------------------------|
A|---------------------------------------------------------------------------|
E|---------------------------------------------------------------------------|
  development and support by
dmitry ivanov