rock
 
|tablatures   |lyrics   |discussion forums   |more tabs @ XGuitar.com

Deep Purple tabs

Bad Attitude bass tab

Deep Purple: BAD ATTITUDE

Bass Tab

E A D G

4/4
Q=122
E E E E E E E E W
|-----------------|------|
|-------0-0-------|------|
|-2-2---------2-2-|------|
|-----------------|------|


E E E E E E E E W E E E E E E E E W
|-----------------|----------|-----------------|------|
|-------0-0-------|----------|-----------------|------|
|-2-2---------2-2-|----------|-------0-0-------|------|
|-----------------|----------|-3-3---------0-0-|------|


E E E E E E E E W E E E E E E E E W
|-----------------|----------|-----------------|------|
|-------0-0-------|----------|-------0-0-------|------|
|-2-2---------2-2-|----------|-2-2---------2-2-|------|
|-----------------|----------|-----------------|------|


E E E E E E E E W E E E E E E E E W
|-----------------|----------|-----------------|------|
|-------0-0-------|----------|-----------------|------|
|-2-2---------2-2-|----------|-------0-0-------|------|
|-----------------|----------|-3-3---------0-0-|------|


E E E E E E E E +Q Q Q Q E E E E E E E E E E E E E E E E
|-----------------|---------------|-----------------|------------------|
|-------0-0-------|---------------|-----------------|------------------|
|-2-2-------------|---------------|-----------------|------------------|
|---------------0-|-(0)--0--0--0--|-0---0---0---0---|-0-0-0-0-0-0-0-0--|


E E E E E E E E E E E E E E E E E E E E E E Q E E E E E E E E
|-----------------|-----------------|----------------|------------------|
|-----------------|-------0-0-------|---2-2---2---2--|-------0-0--------|
|-----------------|-2-2---------4-4-|----------------|-2-2--------------|
|-0-0-0-0-0-0-0-0-|-----------------|----------------|---------------0--|


+Q Q E E Q E E E E E E E E E E E E E E Q E E E E E E E E
|----------------|-----------------|----------------|------------------|
|----------------|-------0-0-------|---2-2---2---2--|-------0-0--------|
|----------------|-2-2---------4-4-|----------------|-2-2--------------|
|-(0)--0--0---0--|-----------------|----------------|---------------0--|


+H +E E E E +Q E E +Q E E E E E E E E E E W
|------------------|-------------------|-----------------|------|
|------------------|-------------------|-------0-0-------|------|
|------------------|-------------------|-2-2---------2-2-|------|
|-(0)----(0)-4-0-0-|-(0)--3-0-(0)--3-0-|-----------------|------|


E E E E E E E E W E E E E E E E E W
|-----------------|----------|-----------------|------|
|-------0-0-------|----------|-----------------|------|
|-2-2---------2-2-|----------|-------0-0-------|------|
|-----------------|----------|-3-3---------0-0-|------|


E E E E E E E E W E E E E E E E E W
|-----------------|----------|-----------------|------|
|-------0-0-------|----------|-------0-0-------|------|
|-2-2---------2-2-|----------|-2-2---------2-2-|------|
|-----------------|----------|-----------------|------|


E E E E E E E E W E E E E E E E E W
|-----------------|----------|-----------------|------|
|-------0-0-------|----------|-----------------|------|
|-2-2---------2-2-|----------|-------0-0-------|------|
|-----------------|----------|-3-3---------0-0-|------|


E E E E E E E E +Q Q Q Q E E E E E E E E E E E E E E E E
|-----------------|---------------|-----------------|------------------|
|-------0-0-------|---------------|-----------------|------------------|
|-2-2-------------|---------------|-----------------|------------------|
|---------------0-|-(0)--0--0--0--|-0---0---0---0---|-0-0-0-0-0-0-0-0--|


E E E E E E E E E E E E E E E E E E E E E E Q E E E E E E E E
|-----------------|-----------------|----------------|------------------|
|-----------------|-------0-0-------|---2-2---2---2--|-------0-0--------|
|-----------------|-2-2---------4-4-|----------------|-2-2--------------|
|-0-0-0-0-0-0-0-0-|-----------------|----------------|---------------0--|


+Q Q E E Q E E E E E E E E E E E E E E Q E E E E E E E E
|----------------|-----------------|----------------|------------------|
|----------------|-------0-0-------|---2-2---2---2--|-------0-0--------|
|----------------|-2-2---------4-4-|----------------|-2-2--------------|
|-(0)--0--0---0--|-----------------|----------------|---------------0--|


+H +E E E E E E E E E E E E E E E E E E Q E E E E E E E E
|------------------|-----------------|----------------|------------------|
|------------------|-------0-0-------|---2-2---2---2--|-------0-0--------|
|------------------|-2-2---------4-4-|----------------|-2-2--------------|
|-(0)----(0)-4-0-0-|-----------------|----------------|---------------0--|


+Q Q E E Q E E E E E E E E E E E E E E Q E E E E E E E E
|----------------|-----------------|----------------|------------------|
|----------------|-------0-0-------|---2-2---2---2--|-------0-0--------|
|----------------|-2-2---------4-4-|----------------|-2-2--------------|
|-(0)--0--0---0--|-----------------|----------------|---------------0--|


+H +E E E E +Q Q E E E E +Q E E E E +E E +Q E E E E E E
|------------------|-----------------|--------------------|-------------------|
|------------------|-----------------|--------------------|-------------------|
|------------------|-----------------|--------------------|-------------------|
|-(0)----(0)-4-0-0-|-(0)-------5-5-0-|-(0)--0-0-0-0-(0)-5-|-(5)--5-5-5-5-5-0--|


+Q Q E E E E +Q Q E E E E +E E E E E E E E +Q Q Q Q
|-----------------|-----------------|-------------------|----------------|
|-----------------|-----------------|-------------------|----------------|
|-----------------|-----------------|-------------------|----------------|
|-(0)--0--0-0-0-5-|-(5)--5--5-5-5-0-|-(0)---0---0-0-0-5-|-(5)--5--5--5---|


E E Q E E Q E E E E E S S E E E E Q E E Q E E E E E S S E E
|---------------|-------------------|---------------|--------------------|
|-----4------4--|-----------2-------|-----4------4--|-----------2--------|
|---------------|-----0-2-4---4-2-0-|---------------|-----0-2-4---4-2-0--|
|-0-2----0-2----|---2---------------|-0-2----0-2----|---2----------------|


E E E E E E E E W E E E E E E E E W
|-----------------|----------|-----------------|------|
|-------0-0-------|----------|-------0-0-------|------|
|-2-2---------2-2-|----------|-2-2---------2-2-|------|
|-----------------|----------|-----------------|------|


E E E E E E E E W E E E E E E E E +Q Q Q. E
|-----------------|----------|-----------------|------1--4----9--|
|-----------------|----------|-------0-0-------|-----------------|
|-------0-0-------|----------|-2-2-------------|-----------------|
|-3-3---------0-0-|----------|---------------0-|-(0)-------------|


E E E E E E E S S E E E E E E E E E E E E E E E E E E E E E E E E
|---9---9---9---9---|-----------------|-----------------|-----------------|
|-------------------|-----------------|---2-2-2---------|-----------------|
|-------------------|-------5-5-5-4-4-|-4-------4-4-4-2-|-2-2-------0-0-0-|
|-------------------|-7-7-7-----------|-----------------|-----2-2-2-------|


E E E E E E E E E E E E E E E E E E E E E E E E E E E E E E E E
|-----------------|-----------------|-----------------|------------------|
|-------0-0-0-----|---2-2-2---------|-----------------|-------0-0-0------|
|-2-2-2-------4-4-|-4-------4-4-4-2-|-2-2-------------|-2-2-2-------4-4--|
|-----------------|-----------------|-----2-2-2-0-0-0-|------------------|


E E E E E E E E E E E E E E E E E E E E E E E E E E E E E E E E
|-----------------|-----------------|-----------------|------------------|
|---2-2-2---------|-----------------|-------0-0-0-----|---2-2-2----------|
|-4-------4-4-4-2-|-2-2-------0-0-0-|-2-2-2-------4-4-|-4-------4-4-4-2--|
|-----------------|-----2-2-2-------|-----------------|------------------|


E E E E E E E E E E E E E E E E E E E E E E E E E E E E E E E E
|-----------------|-----------------|-----------------|------------------|
|-----------------|-------0-0-0-----|---2-2-2---------|------------------|
|-2-2-------------|-2-2-2-------4-4-|-4-------4-4-4-2-|-2-2-------0-0-0--|
|-----2-2-2-0-0-0-|-----------------|-----------------|-----2-2-2--------|


E E E E E E E E E E E E E E E E E E E E E E E E E E E E E E E E
|-----------------|-----------------|-----------------|------------------|
|-------0-0-0-----|---2-2-2---------|-----------------|-------0-0-0------|
|-2-2-2-------4-4-|-4-------4-4-4-2-|-2-2-------------|-2-2-2-------4-4--|
|-----------------|-----------------|-----2-2-2-0-0-0-|------------------|


E E E E E E E E E E E E E E E E E E E E E E E E E E E E E E E E
|-----------------|-----------------|-----------------|------------------|
|---2-2-2---------|-----------------|-------0-0-0-----|---2-2-2----------|
|-4-------4-4-4-2-|-2-2-------0-0-0-|-2-2-2-------4-4-|-4-------4-4-4-2--|
|-----------------|-----2-2-2-------|-----------------|------------------|


E E E E E E E E E E E E E E E E E E E E E E E E E E E E E E E E
|-----------------|-----------------|-----------------|------------------|
|-----------------|-------0-0-0-----|---2-2-2---------|------------------|
|-2-2-------------|-2-2-2-------4-4-|-4-------4-4-4-2-|-2-2-------0-0-0--|
|-----2-2-2-0-0-0-|-----------------|-----------------|-----2-2-2--------|


E E E E E E E E E E E E E E E E E E E E E E E E
|-----------------|-----------------|-----------------*|
|-------0-0-0-----|---2-2-2---------|-----------------*|
|-2-2-2-------4-4-|-4-------4-4-4-2-|-2-2-------------*|
|-----------------|-----------------|-----2-2-2-0-0-0-*|


Duration Legend
---------------
W - whole; H - half; Q - quarter; E - 8th; S - 16th; T - 32nd; X - 64th; a - acciaccatura
+ - note tied to previous; . - note dotted; .. - note double dotted
Uncapitalized letters represent notes that are staccato (1/2 duration)
Irregular groupings are notated above the duration line
Duration letters will always appear directly above the note/fret number it represents the
duration for. Duration letters with no fret number below them represent rests. Multi-
bar rests are notated in the form Wxn, where n is the number of bars to rest for. Low
melody durations appear below the staff

Tablature Legend
----------------
h - hammer-on
p - pull-off
b - bend
pb - pre-bend
r - bend release (if no number after the r, then release immediately)
/\ - slide into or out of (from/to "nowhere")
s - legato slide
S - shift slide
- natural harmonic
[n] - artificial harmonic
n(n) - tapped harmonic
~ - vibrato
tr - trill
T - tap
TP - trem. picking
PM - palm muting
\n/ - tremolo bar dip; n = amount to dip
\n - tremolo bar down
n/ - tremolo bar up
/n\ - tremolo bar inverted dip
= - hold bend; also acts as connecting device for hammers/pulls
<> - volume swell (louder/softer)
x - on rhythm slash represents muted slash
o - on rhythm slash represents single note slash

Misc Legend
-----------
| - bar
|| - double bar
||o - repeat start
o|| - repeat end
*| - double bar (ending)
: - bar (freetime)
$ - Segno
& - Coda
Tempo markers - = BPM(8/16=s8/s16), where s8 = swing 8ths, s16 = swing 16ths
  development and support by
dmitry ivanov