rock
 
|tablatures   |lyrics   |discussion forums   |more tabs @ XGuitar.com

Deep Purple tabs

Anya bass tab

Deep Purple: ANYA

E A D G
4/4
Q=150
Wx19 W
|----------|-2----|
|----------|------|
|----------|------|
|----------|------|


+W +W H H W
|-(2)--------|-(2)--------|-0---------|-2----|
|------------|------------|------2----|------|
|------------|------------|-----------|------|
|------------|------------|-----------|------|


+W +W H H W
|-(2)--------|-(2)--------|-0---------|-2----|
|------------|------------|------2----|------|
|------------|------------|-----------|------|
|------------|------------|-----------|------|


+W +W H H W
|-(2)--------|-(2)--------|-0---------|-2----|
|------------|------------|------2----|------|
|------------|------------|-----------|------|
|------------|------------|-----------|------|


+W +W +H. E E +W
|-(2)--------|-(2)--------|-(2)--------0-|-(0)----|
|------------|------------|--------------|--------|
|------------|------------|--------------|--------|
|------------|------------|--------------|--------|


W E E E E E E E E E E E E E E E E E E E E E E E E
|----------|-2-2-2-2-2-2-2-2-|-2-2-2-2-2-2-2-2-|-2-2-2-2-2-2-2-2-|
|-2--------|-----------------|-----------------|-----------------|
|----------|-----------------|-----------------|-----------------|
|----------|-----------------|-----------------|-----------------|


E E E E E E E E E E E E E E E E E E E E E E E E E E E E E E E E
|-2-2-2-2-2-9-7-5-|-----------------|-----------------|-----------------|
|-----------------|-7-7-7-7-7-7-7-7-|-7-7-7-7-7-7-7-7-|-7-7-7-7-7-7-7-7-|
|-----------------|-----------------|-----------------|-----------------|
|-----------------|-----------------|-----------------|-----------------|


E E E E E E E E E E E E E E E E
|-----------------|-----------------|
|-7-7-7-7-7-7-7-5-|-7-7-7-7-7-7-7-7-|
|-----------------|-----------------|
|-----------------|-----------------|


E E E E E E E E E E E E E E E E
|-5-5-5-5-5-5-5-5-|-11-12-12-12-11-12-12-11-|
|-----------------|-------------------------|
|-----------------|-------------------------|
|-----------------|-------------------------|


E E E E E E Q E E E E E E E E
|-12-12-12-12-11-12-12--|-------------------------|
|-----------------------|-------------------------|
|-----------------------|-12-12-12-12-12-12-12-12-|
|-----------------------|-------------------------|


E E E E E E E E E E E E E E E E
|-------------------------|-------------------------|
|-------------------------|-------------------------|
|-12-12-12-12-12-12-12-12-|-12-12-12-12-12-12-12-12-|
|-------------------------|-------------------------|


E E E E E E E E E E E E E E E E
|-------------------------|-------------------------|
|----------------------10-|-------------------------|
|-12-12-12-12-12----10----|-12-12-12-12-12-12-12-14-|
|----------------12-------|-------------------------|


E E E E E E E E E E E E E E E E
|-------------------------|-------------------------|
|-------------------------|-------------------------|
|-15-15-15-15-15-15-15-15-|-------------------------|
|-------------------------|-14-15-15-15-14-15-15-14-|


E E E E E E Q E E E E E E E E
|-----------------------|-------------------------|
|-----------------------|-------------------------|
|-----------------------|-17-17-17-17-17-17-15----|
|-15-15-15-15-14-15-15--|----------------------17-|


E E E E Q Q E E E E E E E E
|---------------------|-------------------------|
|-------------17--15--|-------------------------|
|-17-17-15-17---------|-17-17-17-17-17-17-15----|
|---------------------|----------------------17-|


E E E E Q Q E E E E E E E E
|---------------------|-------------------------|
|-------------17--15--|-------------------------|
|-17-17-15-17---------|-17-17-17-17-17-17-15----|
|---------------------|----------------------17-|


E E E E Q Q E E E E E E E E
|---------------------|-------------------------|
|-------------17--15--|-------------------------|
|-17-17-15-17---------|-17-17-17-17-17-17-15----|
|---------------------|----------------------17-|


E E E E Q Q E E E E E E E E
|---------------------|-------------------------|
|-------------17--15--|-------------------------|
|-17-17-15-17---------|-------------------------|
|---------------------|-12-12-12-12-12-12-12-12-|


E E E E E E E E E E E E E E E E
|-------------------------|-------------------------|
|-------------------------|-------------------------|
|-------------------------|-------------------------|
|-12-12-12-12-12-12-12-12-|-12-12-12-12-12-12-12-12-|


E E E E E E E E E E E E E E E E
|-------------------------|-------------------------|
|-------------14----12-14-|-------------------------|
|----------------14-------|-------------------------|
|-12-12-12-12-------------|-12-12-12-12-12-12-12-12-|


E E E E E E E E E E E E E E E E
|-------------------------|-------------------------|
|-------------------------|-------------14----12-14-|
|-------------------------|----------------14-------|
|-12-12-12-12-12-12-12-12-|-12-12-12-12-------------|


+W E E E E E E E E
|-------------|-------------------------|
|-(14)--------|-------------------12-14-|
|-------------|-12-12-12-12-12-12-------|
|-------------|-------------------------|


E E E E E E E E E E E E E E E E
|-------------------------|-------------------------|
|-------------------------|-------------------------|
|-12-12-12-12-12-12-14-15-|-------------------------|
|-------------------------|-17-17-17-17-17-17-17-17-|


E E E E E E E E E E E E E E E E
|-------------------------|-------------------------|
|-------------------------|-------------------12-14-|
|-------------------------|-12-12-12-12-12-12-------|
|-15-15-15-15-12-12-12-12-|-------------------------|


E E E E E E E E E E E E E E E E
|-------------------------|-------------------------|
|-------------------------|-------------------------|
|-12-12-12-12-12-12-14-15-|-------------------------|
|-------------------------|-17-17-17-17-17-17-17-17-|


E E E E E E E E E E E E E E E E
|---------------------|-------------7-9-|
|-------------5-5-5-5-|-7-7-7-7-7-7-----|
|---------------------|-----------------|
|-19-19-19-19---------|-----------------|


E E E E E E E E E E E E E E E E
|------------------|-------------------------|
|-7-7-7-7-7-7-9-10-|-------------------------|
|------------------|-12-12-12-12-12-12-12-12-|
|------------------|-------------------------|


E E E E E E E E E E E E E E E E
|-------------9-9-9-9-|-------------7-9-|
|---------------------|-7-7-7-7-7-7-----|
|-10-10-10-10---------|-----------------|
|---------------------|-----------------|


E E E E E E E E E E E E E E E E
|------------------|-------------------------|
|-7-7-7-7-7-7-9-10-|-------------------------|
|------------------|-12-12-12-12-12-12-12-10-|
|------------------|-------------------------|


+W W E E E E E E E E E E E E E E E E
|-------------|-----------|-------------------------|-------------------------|
|-------------|-----------|-------------------------|-------------------------|
|-(10)--------|-----------|-12-12-12-12-12-12-12-12-|-12-12-12-12-12-12-12-12-|
|-------------|-12--------|-------------------------|-------------------------|


E E E E E E E E E E E E E E E E
|-------------------------|-------------------------|
|-------------------------|-------------------------|
|-12-12-12-12-12-12-12-12-|-12-12-12-12-12-12-12-12-|
|-------------------------|-------------------------|


E E E E E E E E E E E E E E E E
|-------------------------|-------------------------|
|-------------------------|-------------------------|
|-12-12-12-12-12-12-12-12-|-12-12-12-12-12-12-12-12-|
|-------------------------|-------------------------|


E E E E E E E E +E E E E E E Q
|----------------------14-|-(14)-14-14-14-14-14-14--|
|----------------12-14----|-------------------------|
|-12-12-12-12-12----------|-------------------------|
|-------------------------|-------------------------|


E E E E E E E E E E E E E E E E
|-------------------------|-------------------------|
|-------------------------|-------------------------|
|-12-12-12-12-12-12-12-12-|-12-12-12-12-12-12-12-12-|
|-------------------------|-------------------------|


E E E E E E E E E E E E E E E E
|-------------------------|-------------------------|
|-------------------------|-------------------------|
|-12-12-12-12-12-12-12-12-|-12-12-12-12-12-12-12-10-|
|-------------------------|-------------------------|


E E E E E E E E E E E E E E E E
|-------------------------|-------------------------|
|-------------------------|-10-10-10-10-10-10-10-10-|
|-12-12-12-12-12-12-12-12-|-------------------------|
|-------------------------|-------------------------|


E E E E E E E E E E E E E E Q
|-11-12-12-12-11-12-12-11-|-12-12-12-12-11-12-12--|
|-------------------------|-----------------------|
|-------------------------|-----------------------|
|-------------------------|-----------------------|


E E E E E E E E E E E E E E E E
|-------------------------|-------------------------|
|-------------------------|-------------------------|
|-12-12-12-12-12-12-12-12-|-12-12-12-12-12-12-12-12-|
|-------------------------|-------------------------|


E E E E E E E E E E E E E E E E
|-------------------------|-------------------------|
|-------------------------|----------------------10-|
|-12-12-12-12-12-12-12-12-|-12-12-12-12-12----10----|
|-------------------------|----------------12-------|


E E E E E E E E E E E E E E E E
|-------------------------|-------------------------|
|-------------------------|-------------------------|
|-12-12-12-12-12-12-12-14-|-15-15-15-15-15-15-15-15-|
|-------------------------|-------------------------|


E E E E E E E E E E E E E E Q
|-------------------------|-----------------------|
|-------------------------|-----------------------|
|-------------------------|-----------------------|
|-14-15-15-15-14-15-15-14-|-15-15-15-15-14-15-15--|


E E E E E E E E E E E E Q Q
|-------------------------|---------------------|
|-------------------------|-------------17--15--|
|-17-17-17-17-17-17-15----|-17-17-15-17---------|
|----------------------17-|---------------------|


E E E E E E E E E E E E Q Q
|-------------------------|---------------------|
|-------------------------|-------------17--15--|
|-17-17-17-17-17-17-15----|-17-17-15-17---------|
|----------------------17-|---------------------|


E E E E E E E E E E E E Q Q
|-------------------------|---------------------|
|-------------------------|-------------17--15--|
|-17-17-17-17-17-17-15----|-17-17-15-17---------|
|----------------------17-|---------------------|


E E E E E E E E E E E E Q Q
|-------------------------|---------------------|
|-------------------------|-------------17--15--|
|-17-17-17-17-17-17-15----|-17-17-15-17---------|
|----------------------17-|---------------------|


E E E E E E E E E E E E E E E E
|-------------------------|-------------------------|
|-------------------------|-------------------------|
|-------------------------|-------------------------|
|-12-12-12-12-12-12-12-12-|-12-12-12-12-12-12-12-12-|


E E E E E E E E E E E E E E E E
|-------------------------|-------------------------|
|-------------------------|-------------14----12-14-|
|-------------------------|----------------14-------|
|-12-12-12-12-12-12-12-12-|-12-12-12-12-------------|


E E E E E E E E E E E E E E E E
|-------------------------|-------------------------|
|-------------------------|-------------------------|
|-------------------------|-------------------------|
|-12-12-12-12-12-12-12-12-|-12-12-12-12-12-12-12-12-|


E E E E E E E E +W
|-------------------------|-------------|
|-------------14----12-14-|-(14)--------|
|----------------14-------|-------------|
|-12-12-12-12-------------|-------------|


E E E E E E E E E E E E E E E E
|-------------------------|-------------------------|
|-------------------12-14-|-------------------------|
|-12-12-12-12-12-12-------|-12-12-12-12-12-12-14-15-|
|-------------------------|-------------------------|


E E E E E E E E E E E E E E E E
|-------------------------|-------------------------|
|-------------------------|-------------------------|
|-------------------------|-------------------------|
|-17-17-17-17-17-17-17-17-|-15-15-15-15-12-12-12-12-|


E E E E E E E E E E E E E E E E
|-------------------------|-------------------------|
|-------------------12-14-|-------------------------|
|-12-12-12-12-12-12-------|-12-12-12-12-12-12-14-15-|
|-------------------------|-------------------------|


E E E E E E E E E E E E E E E E
|-------------------------|---------------------|
|-------------------------|-------------5-5-5-5-|
|-------------------------|---------------------|
|-17-17-17-17-17-17-17-17-|-19-19-19-19---------|


E E E E E E E E E E E E E E E E
|-------------7-9-|------------------|
|-7-7-7-7-7-7-----|-7-7-7-7-7-7-9-10-|
|-----------------|------------------|
|-----------------|------------------|


E E E E E E E E E E E E E E E E
|-------------------------|-------------9-9-9-9-|
|-------------------------|---------------------|
|-12-12-12-12-12-12-12-12-|-10-10-10-10---------|
|-------------------------|---------------------|


E E E E E E E E E E E E E E E E
|-------------7-9-|------------------|
|-7-7-7-7-7-7-----|-7-7-7-7-7-7-9-10-|
|-----------------|------------------|
|-----------------|------------------|


E E E E E E E E +W W E E E E E E E E
|-------------------------|-------------|-----------|-------------10----------|
|-------------------------|-------------|-12--------|-------14----------12-14-|
|-12-12-12-12-12-12-12-10-|-(10)--------|-----------|-------------------------|
|-------------------------|-------------|-----------|-12-12----12----12-------|


S S S S S S S S S S S S S S S S E E E E E E E E
|-----------------------------------------|-------------10----------|
|-----------------------------------------|-------14----------12-14-|
|-----------------------------------------|-------------------------|
|-12---12---12---12---12---12---12---12---|-12-12----12----12-------|


S S S S S S S S S S S S S S S S E E E E E E E E
|-----------------------------------------|-------------10----------|
|-----------------------------------------|-------14----------12-14-|
|-----------------------------------------|-------------------------|
|-12---12---12---12---12---12---12---12---|-12-12----12----12-------|


S S S S S S S S S S S S S S S S E E E E E E E E
|-----------------------------------------|-------------10----------|
|-----------------------------------------|-------14----------12-14-|
|-----------------------------------------|-------------------------|
|-12---12---12---12---12---12---12---12---|-12-12----12----12-------|


S S S S S S S S S S S S S S S S E E E E E E E E
|-----------------------------------------|-------------10----------|
|-----------------------------------------|-------14----------12-14-|
|---------------------10--------12---10---|-------------------------|
|-12---12---12---12--------12-------------|-12-12----12----12-------|


S S S S S S S S S S S S S S S S E E E E E E E E
|-----------------------------------------|-------------10----------|
|-----------------------------------------|-------14----------12-14-|
|---------------------10--------12---10---|-------------------------|
|-12---12---12---12--------12-------------|-12-12----12----12-------|


S S S S S S S S S S S S S S S S E E E E E E E E
|----------------------------------------|-----9---10----------|
|----------------------------------------|---------------12-14-|
|---------------------10---10---10---8---|-7-7---7-------------|
|-12---12---12---12----------------------|------------12-------|


S S S S S S S S S S S S S S S S
|-----------------------------------------|
|-------------------------------12---14---|
|-----------------------------------------|
|-12---12---12---12---12---12-------------|


S S S S S S S S S S S S S S E
|---------------------10----------------|
|-----------14------------------12---14-|
|---------------------------------------|
|-12---12--------12--------12-----------|


+S S E +S S S S S S S S S S S S W +W
|----------------------------------------12---|-----------|---------|
|-(14)---14-(14)---14-14-14---14-14-14--------|-----------|---------|
|---------------------------------------------|-12--------|-(12)----|
|---------------------------------------------|-----------|---------|


+H +Q Q Q +S S E Q +S S E W +W
|------------------|---------------------------|-----------|---------|
|------------------|---------------------------|-----------|---------|
|-(12)----(12)-----|-10--(10)------------------|-12--------|-(12)----|
|------------------|--------------12--(12)-----|-----------|---------|


+H Q Q +H +H H +H E E E E E E E E
|----------------|-----------------|---------------|-------------------------|
|----------------|-----------------|---------------|-12-12-12-12-12-12-10----|
|-(12)-------10--|-(10)----(10)----|---------------|----------------------12-|
|----------------|-----------------|-12----(12)----|-------------------------|


E E E E Q Q E E E E E E E E
|-------------12--10--|-------------------------|
|-12-12-10-12---------|-12-12-12-12-12-12-10----|
|---------------------|----------------------12-|
|---------------------|-------------------------|


E E E E Q Q E E E E E E E E
|-------------12--10--|-------------------------|
|-12-12-10-12---------|-12-12-12-12-12-12-10----|
|---------------------|----------------------12-|
|---------------------|-------------------------|


E E E E Q Q E E E E E E E E
|-------------12--10--|-------------------------|
|-12-12-10-12---------|-12-12-12-12-12-12-10----|
|---------------------|----------------------12-|
|---------------------|-------------------------|


E E E E Q Q E E E E E E E E
|-------------12--10--|-------------------------|
|-12-12-10-12---------|-------------------------|
|---------------------|-------------------------|
|---------------------|-12-12-12-12-12-12-12-12-|


E E E E E E E E E E E E E E E E
|-------------------------|-------------------------|
|-------------------------|-------------------------|
|-------------------------|-------------------------|
|-12-12-12-12-12-12-12-12-|-12-12-12-12-12-12-12-12-|


E E E E E E E E E E E E E E E E
|-------------------------|-------------------------|
|-------------14----12-14-|-------------------------|
|----------------14-------|-------------------------|
|-12-12-12-12-------------|-12-12-12-12-12-12-12-12-|


E E E E E E E E E E E E E E E E
|-------------------------|-------------------------|
|-------------------------|-------------14----12-14-|
|-------------------------|----------------14-------|
|-12-12-12-12-12-12-12-12-|-12-12-12-12-------------|


+W E E E E E E E E
|-------------|-------------------------|
|-(14)--------|-------------------12-14-|
|-------------|-12-12-12-12-12-12-------|
|-------------|-------------------------|


E E E E E E E E E E E E E E E E
|-------------------------|-------------------------|
|-------------------------|-------------------------|
|-12-12-12-12-12-12-14-15-|-------------------------|
|-------------------------|-17-17-17-17-17-17-17-17-|


E E E E E E E E E E E E E E E E
|-------------------------|-------------------------|
|-------------------------|-------------------12-14-|
|-------------------------|-12-12-12-12-12-12-------|
|-15-15-15-15-12-12-12-12-|-------------------------|


E E E E E E E E E E E E E E E E
|-------------------------|-------------------------|
|-------------------------|-------------------------|
|-12-12-12-12-12-12-14-15-|-------------------------|
|-------------------------|-17-17-17-17-17-17-17-17-|


E E E E E E E E E E E E E E E E
|---------------------|-------------7-9-|
|-------------5-5-5-5-|-7-7-7-7-7-7-----|
|---------------------|-----------------|
|-19-19-19-19---------|-----------------|


E E E E E E E E E E E E E E E E
|------------------|-------------------------|
|-7-7-7-7-7-7-9-10-|-------------------------|
|------------------|-12-12-12-12-12-12-12-12-|
|------------------|-------------------------|


E E E E E E E E E E E E E E E E
|-------------9-9-9-9-|-------------7-9-|
|---------------------|-7-7-7-7-7-7-----|
|-10-10-10-10---------|-----------------|
|---------------------|-----------------|


E E E E E E E E E E E E E E E E
|------------------|-------------------------|
|-7-7-7-7-7-7-9-10-|-------------------------|
|------------------|-12-12-12-12-12-12-12-12-|
|------------------|-------------------------|


E E E E E E E E Q Q +S S E Q
|-------------------------|----------------------|
|-------------------------|----------------------|
|-14-14-14-14-------------|----------------------|
|-------------15-15-15-15-|----17--(17)-----17---|


+Q Q +S S E Q +Q Q +S S E Q
|------------------------|------------------------|
|------------------------|------------------------|
|------------------------|------------------------|
|-(17)--17--(17)-----17--|-(17)--17--(17)-----17--|


+Q Q +S S E S S S S
|-------------------------------|
|-------------------------------|
|-------------------------12----|
|-(17)--15--(15)-----12---------|


Q Q +S S E Q +Q Q +S S E Q +Q Q +S S E Q
|---------------------|------------------------|------------------------|
|---------------------|------------------------|------------------------|
|----12--(12)-----12--|-(12)--12--(12)-----12--|-(12)--12--(12)-----12--|
|---------------------|------------------------|------------------------|


+Q Q +S S E S S S S Q Q +S S E Q +Q Q +S S E Q
|------------------------------|---------------------|-------------------------|
|------------------------------|---------------------|-------------------------|
|-(12)--10--(10)----------12---|----12--(12)-----12--|-(12)--12--(12)-----12---|
|--------------------12--------|---------------------|-------------------------|


+Q Q +S S E Q +Q Q +S S E S S S S Q Q +S S E Q
|------------------------|------------------------------|----------------------|
|------------------------|------------------------------|----------------------|
|-(12)--12--(12)-----12--|-(12)--10--(10)----------12---|----12--(12)-----12---|
|------------------------|--------------------12--------|----------------------|


+Q Q +S S E Q +Q Q +S S E S S E
|------------------------|----------------------------|
|------------------------|----------------------------|
|-(12)--12--(12)-----12--|-(12)--12--(12)-----12---10-|
|------------------------|----------------------------|


+H +Q Q H +Q Q
|------------------|-----------------|
|------------------|-----------------|
|-(10)----(10)-----|-----------------|
|------------------|-12----(12)------|


Q=109
W +H +Q Q W
|-----------|------------------|------*|
|-----------|------------------|------*|
|-12--------|-(12)----(12)-----|------*|
|-----------|------------------|------*|


Duration Legend
---------------
W - whole; H - half; Q - quarter; E - 8th; S - 16th; T - 32nd; X - 64th; a - acciaccatura
+ - note tied to previous; . - note dotted; .. - note double dotted
Uncapitalized letters represent notes that are staccato (1/2 duration)
Irregular groupings are notated above the duration line
Duration letters will always appear directly above the note/fret number it represents the
duration for. Duration letters with no fret number below them represent rests. Multi-
bar rests are notated in the form Wxn, where n is the number of bars to rest for. Low
melody durations appear below the staff

Tablature Legend
----------------
h - hammer-on
p - pull-off
b - bend
pb - pre-bend
r - bend release (if no number after the r, then release immediately)
/\ - slide into or out of (from/to "nowhere")
s - legato slide
S - shift slide
- natural harmonic
[n] - artificial harmonic
n(n) - tapped harmonic
~ - vibrato
tr - trill
T - tap
TP - trem. picking
PM - palm muting
\n/ - tremolo bar dip; n = amount to dip
\n - tremolo bar down
n/ - tremolo bar up
/n\ - tremolo bar inverted dip
= - hold bend; also acts as connecting device for hammers/pulls
<> - volume swell (louder/softer)
x - on rhythm slash represents muted slash
o - on rhythm slash represents single note slash

Misc Legend
-----------
| - bar
|| - double bar
||o - repeat start
o|| - repeat end
*| - double bar (ending)
: - bar (freetime)
$ - Segno
& - Coda
Tempo markers - = BPM(8/16=s8/s16), where s8 = swing 8ths, s16 = swing 16ths
  development and support by
dmitry ivanov