rock
 
|tablatures   |lyrics   |discussion forums   |more tabs @ XGuitar.com

Creedence Clearwater Revival tabs

Wholl Stop The Rain bass tab

Song Title: Who'll Stop the Rain
Artist: Creedence Clearwater Revival
----------------------------------------------

Creedence Clearwater Revival - "Who'll Stop the Rain" - Bass Tab

Intro:
|--------------|------------|
|*-------------|-----------*|
|*-------------|-----------*|(x4)
|--3---3-0---0-|-3---3-2-0--|
   1 2 & 3 4 &   1 2 & 3 4

Verse 1 & 2:
|--------------|-------------|-------------|--------------|
|*-------------|-------------|-------------|-------------*|
|*-------------|-------------|-3---3-3---3-|-------------*|(x2)
|--3---3-3---3-|-3---3-3---3-|-------------|-3---3-3---3--|
   1 2 & 3 4 &   1 2 & 3 4 &   1 2 & 3 4 &   1 2 & 3 4 &

|-------------|-------------|-------------|-------------|
|-------------|-------------|-------------|-------------|
|-3---3-3---3-|-------------|-3---3-3---3-|-------------|
|-------------|-3---3-3---3-|-------------|-3---3-3---3-|
  1 2 & 3 4 &   1 2 & 3 4 &   1 2 & 3 4 &   1 2 & 3 4 &

|-------------|-------------|-------------|-------------|
|-------------|-------------|-------------|-------------|
|-3---3-3---3-|-5---5-5---5-|-------------|-------------|
|-------------|-------------|-0---0-0---0-|-3---3-3---3-|
  1 2 & 3 4 &   1 2 & 3 4 &   1 2 & 3 4 &   1 2 & 3 4 &

Chord Solo:
|---------|-----------|---------|-----------|---------|
|---------|-----------|---------|-----------|---------|
|-R-R-R-R-|-3-------5-|-R-R-R-R-|-----3-----|-R-R-R-5-| 
|---------|-----3-----|---------|-5-------0-|---------|
  1 2 3 4   1 2 & 3 4   1 2 3 4   1 2 & 3 4   1 2 3 4 

|---------|---------|
|---------|---------|
|-5-------|-5-------|
|---------|---------|
  1 2 3 4   1 2 3 4

Verse 3:
|-------------|-------------|-------------|-------------|
|-------------|-------------|-------------|-------------|
|-------------|-------------|-3---3-3---3-|-------------|
|-3---3-3---3-|-3---3-3---3-|-------------|-3---3-3---3-|
  1 2 & 3 4 &   1 2 & 3 4 &   1 2 & 3 4 &   1 2 & 3 4 &

|-------------|-------------|-------------|-------------|
|-------------|-------------|-------------|-------------|
|-------------|-------------|-3---3-3---3-|-------------|
|-3---3-3---3-|-0---0-0---0-|-------------|-3---3-3---3-|
  1 2 & 3 4 &   1 2 & 3 4 &   1 2 & 3 4 &   1 2 & 3 4 &

|-------------|-------------|-------------|-------------|
|-------------|-------------|-------------|-------------|
|-3---3-3---3-|-------------|-3---3-3---3-|-------------|
|-------------|-3---3-3---3-|-------------|-3---3-3---3-|
  1 2 & 3 4 &   1 2 & 3 4 &   1 2 & 3 4 &   1 2 & 3 4 &

|-------------|-------------|---------|--------|
|-------------|-------------|---------|--------|
|-3---3-3---3-|-5---5-5---5-|----|
|-------------|-------------|-0-------|--------|
  1 2 & 3 4 &   1 2 & 3 4 &   1 2 3 4   1 2 3 4 

Ending:
|--------------|------------|
|*-------------|-----------*|
|*-------------|-----------*|(fade-out))
|--3---3-0---0-|-3---3-2-0--|
   1 2 & 3 4 &   1 2 & 3 4


Submitted by:  Johari Taylor (viking@powerup.com.au)
  development and support by
dmitry ivanov