rock
 
|tablatures   |lyrics   |discussion forums   |more tabs @ XGuitar.com

Creedence Clearwater Revival tabs

Up Around The Bend bass tab

Up Around The Bend.btab
CCR
Basstab by Jan Bjorklund, Finland;
jani_bjorklund@yahoo.se
You are welcome to request for basstabs or standard notation!
Bienvenidos a pedirme transcripciones para el bajo!

Tuning : E A D G 	Time Signature: 4/4

 tempo 128       |       |        |       |       |       |
|--------------------------------|--------------------------------|
|---------------------------G U I T A R---------------------------|
|--------------------------------|--------------------------------|
|--------------------------------|--------------------------------|

 |       |       |       |        |       |       |       |
|--------------------------------|--------------------------------|
|--------------------------- I N T R O ---------------------------|
|--------------------------------|----------------------------0---|
|--------------------------------|--------------------------------|

 |       |       |       |        |       |       |       |
|--------------------------------|--------------------------------|
|--------------------------------|--------------------------------|
|5---5---5---5---5---5---5---5---|5---5---5---5---5---5---5---5---|
|--------------------------------|--------------------------------|

 |       |       |       |        |       |       |       |
|--------------------------------|--------------------------------|
|--------------------------------|--------------------------------|
|0---0---0---0---0---0---0---0---|5---5---5---5---5---5---5---5---|
|--------------------------------|--------------------------------|

 |       |       |       |        |       |       |       |
|--------------------------------|--------------------------------|
|----------------------------0---|----------------------------0---|
|5---5---5---5---5---0---2-------|5---5---5---5---5---0---2-------|
|--------------------------------|--------------------------------|

 |       |       |       |        |       |       |       |
|--------------------------------|--------------------------------|
|--------------------------------|--------------------------------|
|----------------------------0---|0---2-------5-------5---5---0---|
|5---5---5---5---5---0---2-------|--------0-----------------------|

 |       |       |       |        |       |       |       |
|--------------------------------|--------------------------------|
|----------------------------0---|----------------------------0---|
|5---5---5---5---5---0---2-------|5---5---5---5---5---0---2-------|
|--------------------------------|--------------------------------|

 |       |       |       |        |       |       |       |
|--------------------------------|--------------------------------|
|--------------------------------|--------------------------------|
|----------------------------0---|0---2-------5-------5---5---0---|
|5---5---5---5---5---0---2-------|--------0-----------------------|

 |       |       |       |        |       |       |       |
|--------------------------------|------------4---6---4-------4---|
|5---5-------5---4---4---4-------|7-------7---------------7-------|
|--------------------------------|--------------------------------|
|--------------------------------|--------------------------------|

 |       |       |       |        |       |       |       |
|--------------------------------|--------------------------------|
|5---5-------5-------------------|7---7---7---7---7---7---7---7---|
|----------------5---5---5---5---|--------------------------------|
|--------------------------------|--------------------------------|

 |       |       |       |        |       |       |       |
|--------------------------------|--------------------------------|
|7---7---5---5---4---4-----------|----------------------------0---|
|------------------------7---7---|5---5---5---5---5---0---2-------|
|--------------------------------|--------------------------------|

 |       |       |       |        |       |       |       |
|--------------------------------|--------------------------------|
|----------------------------0---|-----------  and so on... ------|
|5---5---5---5---5---0---2-------|----------------------------0---|
|--------------------------------|5---5---5---5---5---0---2-------|


Transcribe! 6.0 transcription http://www.seventhstring.demon.co.uk/
Created with TablEdit http://www.tabledit.com/
http://www.geocities.com/jani_bjorklund/janis.html?1058405404377
  development and support by
dmitry ivanov