rock
 
|tablatures   |lyrics   |discussion forums   |more tabs @ XGuitar.com

Creedence Clearwater Revival tabs

The Midnight Special bass tab

Song: Midnight Special
Artist: Creedence Clearwater Revival
Tabbed: Rippleseeker
Note: There are several different ways to play this,
and it’s the bassist’s choice.
This is the blues/folk version.

Intro (Piano Only):
  G
G--------
D--------
A--------
E--------

C Chord:

G-------2-------2--
D---2-5-----2-5----
A-3-------3--------
E------------------

G Chord:

G------------------
D-------2-------2--
A---2-5-----2-5----
E-3-------3--------

D7 Chord:

G-----2-4-----2-4
D---4-------4----
A-5-------5------
E----------------

Order of Chords:
Intro
C G D7 G
C G D7 G
C G D7 G

The song then repeats three more times.
All chords are played in that order including the intro.
  development and support by
dmitry ivanov