rock
 
|tablatures   |lyrics   |discussion forums   |more tabs @ XGuitar.com

Creedence Clearwater Revival tabs

Someday Never Comes bass tab

|------------------------|
|-------5----------5-----|
|----8-----7-------------|
|-7-------------7-----7--|  Verses 1

|--------------------|-----------|
|--------------------|-----------|
|-88888888-----------|----7------|
|----------77777777--|-8-----7---|  Chorus 1
|--------2x----------|

|-----------------------|
|----5--7---------7-----|
|----------8------------|
|-8------------8-----8--|  Verses 2

|--------------------|--------------|
|-55555555-----------|--------------|
|--------------------|------8-------|
|----------88888888--|-10-------8---|  Chorus 2
 |-------2x---------| |-----2x-----|
  development and support by
dmitry ivanov