rock
 
|tablatures   |lyrics   |discussion forums   |more tabs @ XGuitar.com

Creedence Clearwater Revival tabs

Sinister Purpose bass tab

Band: CCR
Bassist: Stu Cook
Album: Green River
Tabbed by: uncnick157

Intro
----------------
-------------0-2
---------0-2----
-5^-5^-3--------

verse
------------------------
--------0---------------
-----0-2---------1-0----
-0-0------3-0-0------3-0 x4

chorus
-------------9------
------------9-9-----
-3--5-5--7-----7--5-
-----3-3------------ x2

third time
-------------9-9-
------------9-9--
-3--5-5--7-------
-----3-3---------

post-chorus
-----------------------------
-2p0----------------------0-2
-----2p0--------------0-2----
---------3p0--5^-5^-3--------

just repeat the whole thing like three times...also after the solo, it ends
-----------------------------
-2p0-------------------------
-----2p0-------0-----0-------
---------3p0----3-0----3-0---

thats it, its a great song
  development and support by
dmitry ivanov