rock
 
|tablatures   |lyrics   |discussion forums   |more tabs @ XGuitar.com

Creedence Clearwater Revival tabs

Sailors Lament bass tab

-=Sailor’s lament=-
-=Creedence Clearwater Revival=-
-=Tabbed by Giom: gui.braize@caramail.com=-

Main riff:

G------------------------------
D-5--5--5---55--5-----55-------
A---5--5--3----5--5-3----------
E-------------------------333--

Chorus:

G-----------------------
D-5-5-5-5---5---55------
A---------5---3---------
E------------------333—
  development and support by
dmitry ivanov