rock
 
|tablatures   |lyrics   |discussion forums   |more tabs @ XGuitar.com

Creedence Clearwater Revival tabs

Run Through The Jungle guitar tab

Run Through The Jungle

Intro:

intro                                
e--15(bend)-----17(bend)-|
b---------------------------------|
g---------------------------------|
d---------------------------------|
a---------------------------------|
E---------------------------------|

Main Riff (repeated through the whole song with small variations)
e--------------------------------------------------------------------|
b--3----------------------------------------3--3--3--6--3--3----|
g-----2---5--5--2-------------------------2--2--2--5--2--2----|
d---------------------3--0---------0-------------------------------|
a-----------------------------0h3----------------------------------|
E--------------------------------------------------------------------|

harmonica solo for guitar
(bend all the e8 and b9s together a half step)
e--8--8--8--8--8--8--8/------8/---------|----8/---10--9------------------| 
b--9--9--9--9--9--9--9/3----9/3--------|---9/---------8---3--3---------|
g---------------------------2-------2--------|--------------------2--2---------| 
d----------------------------------------------|----------------------------0----| 
a----------------------------------------------|----------------------------------|
E----------------------------------------------|---------------------------------|

end of the harmonica solo
e--8--8------------------|
b--9--9/3-------3-------|
g-------------5-----------|
d--------------------------|
a--------------------------|
E--------------------------|
  development and support by
dmitry ivanov