rock
 
|tablatures   |lyrics   |discussion forums   |more tabs @ XGuitar.com

Creedence Clearwater Revival tabs

Run Through The Jungle bass tab

TablEdited by Jan Bjorklund
Tuning : E A D G 	Time Signature: 4/4


 tempo 136       |       |        |       |       |       |
|7-------------------5-----------|7-------------------------------|
|------------5---7-----------5---|------------5---7---------------|
|--------------------------------|------------------------8---8---|
|--------------------------------|--------------------------------|

 |       |       |       |        |       |       |       |
|7-------------------5-----------|7-------------------------------|
|------------5---7-----------5---|------------5---7---------------|
|--------------------------------|------------------------8---8---|
|--------------------------------|--------------------------------|

 |       |       |       |        |       |       |       |
|7-----------------------5---5---|7---7---------------------------|
|------------5---7---------------|------------5---7---------------|
|--------------------------------|------------------------8---8---|
|--------------------------------|--------------------------------|

 |       |       |       |        |       |       |       |
|7---7-------------------5---5---|7---7---------------------------|
|------------5---7---------------|------------5---7---------------|
|--------------------------------|------------------------8---8---|
|--------------------------------|--------------------------------|

 |       |       |       |        |       |       |       |
|7---7-------------------5---5---|7---7---------------------------|
|--------7---5---7---------------|------------5---7---------------|
|--------------------------------|------------------------8---8---|
|--------------------------------|--------------------------------|

 |       |       |       |        |       |       |       |
|7-----------------------5---5---|7-------------------------------|
|------------5---7---------------|------------5---7---------------|
|--------------------------------|------------------------8---8---|
|--------------------------------|--------------------------------|

 |       |       |       |        |       |       |       |
|7---7---------------5---5---7---|7---7---------------------------|
|------------5---7---------------|------------5---7---------------|
|--------------------------------|------------------------8---8---|
|--------------------------------|--------------------------------|

 |       |       |       |        |       |       |       |
|7---7-------------------5---5---|7---7---------------------------|
|--------7---5---7---------------|------------5---7---------------|
|--------------------------------|------------------------8---8---|
|--------------------------------|--------------------------------|

 |       |       |       |        |       |       |       |
|7---7-------------------5---5---|7---7---------------------------|
|--------7---5---7---------------|------------5---7---------------|
|--------------------------------|------------------------8---8---|
|--------------------------------|--------------------------------|


Transcribe! 6.0 transcription http://www.seventhstring.demon.co.uk/
Created with TablEdit http://www.tabledit.com/
http://www.geocities.com/jani_bjorklund/janis.html?1058405404377


=====
Jan Bjorklund, Finland
  development and support by
dmitry ivanov